To celebrate the anniversary, I am giving you (finally...) : iPhone LickByNeck !!!!!!

Fragile (BASIC)

Sting's classic tune fingerstyle chord melody guitar BASIC arrangement played in the key of Em.

Fragile - BASIC ARRANGEMENT played in the key of Em.
http://classicalguitartablature.blogspot.com/
E|------------------------ 7------| 7------------------------------|
B|----------------------------10--|--------------------------------|
G|-------------------- 9----------|--------------------------------|
D|--------------------------------|--------------------------------|
A|--------------------------------|--------------------------------|
E| 0------------------------------|--------------------------------|
http://classicalguitartablature.blogspot.com/
E| 7------------------ 7---- 7----|--------------------------------|
B| 8--------10 8------ 8---- 8-- 8|---------- 7-- 5-- 5-- 8-- 8----|
G| 0-------- 0-- 0------ 0-- 0-- 0|---------- 0-- 0-- 0-- 0-- 0----|
D|---- 910------ 9-- 9---------- 9|-- 9-- 7-- 7-- 5-- 5-- 9-- 9----|
A|--------------------------------| 0------ 0------ 0------ 0------|
E| 0-------------- 0------ 0------|--------------------------------|
http://classicalguitartablature.blogspot.com/
http://classicalguitartablature.blogspot.com/
E|--------------------------------|--------------------------------|
B| 8-- 8---- 7-- 5-- 5-- 4------ 7|---- 7 7 5 5-- 8------ 8--------|
G| 8-- 8---- 8-- 4-- 4-- 2------ 0|---- 0 0-- 0-- 0---- 0------ 0--|
D| 7---- 7-- 7-- 4---- 4 4-- 4-- 7|---- 7 7 5 5-- 9-- 9------ 9----|
A|---------------- 0--------------|--------------------------------|
E| 7---------------------- 0------| 0------ 0------ 0------ 0------|
http://classicalguitartablature.blogspot.com/
E| 7------------------ 7---- 7----|--------------------------------|
B| 8--------10 8------ 8---- 8-- 8|---------- 7-- 5-- 5-- 8-- 8----|
G| 0-------- 0-- 0------ 0-- 0-- 0|---------- 0-- 0-- 0-- 0-- 0----|
D|---- 910------ 9-- 9---------- 9|-- 9-- 7-- 7-- 5-- 5-- 9-- 9----|
A|--------------------------------| 0------ 0------ 0------ 0------|
E| 0-------------- 0------ 0------|--------------------------------|
http://classicalguitartablature.blogspot.com/
E|--------------------------------|---------------- 0-------- 7----|
B| 8-- 8---- 7-- 5-- 5-- 4------ 7|---- 7 7-- 8------------------10|
G| 8-- 8---- 8-- 4-- 4-- 2------ 0|---- 0 0------ 0------ 0 9------|
D| 7---- 7-- 7-- 4---- 4 4-- 4-- 7|---- 7 7 9-- 9------ 9----------|
A|---------------- 0--------------|--------------------------------|
E| 7---------------------- 0------| 0-------------- 0------ 0------|
http://classicalguitartablature.blogspot.com/
E| 7------------------------ 7-- 7|---------- 8-- 5----------------|
B| 0--------10-- 8--------------10| 5------------------ 5------ 510|
G| 0---- 0------------ 0-- 9------| 5---- 5------------ 5---- 5-- 8|
D|---- 9------ 9---- 9-- 9--------|---- 5------------ 5------ 5-- 7|
A|--------------------------------| 0------ 0------ 0---- 0--------|
E| 0------ 0------ 0------ 0------|--------------------------------|
http://classicalguitartablature.blogspot.com/
E|--------------------------------|-- 7-- 7-------------------- 7--|
B|----10---- 8--10----10------10--|10----------------------------10|
G|---- 8---- 8-- 8---- 8----------| 9---------- 9------ 9---- 9----|
D|------ 7------ 7-- 7------------| 9-------- 9-- 9-- 9-- 9--------|
A|--------------------------------|--------------------------------|
E| 7------ 7------ 7------ 7------| 0------ 0------ 0------ 0------|
http://classicalguitartablature.blogspot.com/
E| 7------------------------ 7-- 7|---------- 8-- 5----------------|
B| 0--------10-- 8--------------10| 5------------------ 5------ 5--|
G| 0---- 0------------ 0-- 9------| 5---- 5------------ 5---- 5----|
D|---- 9------ 9---- 9-- 9--------|---- 5------------ 5------ 5----|
A|--------------------------------| 0------ 0------ 0---- 0--------|
E| 0------ 0------ 0------ 0------|--------------------------------|
http://classicalguitartablature.blogspot.com/
E|------------------------------ 0|---------------------------- 7--|
B|101010---- 8--10---- 7-- 8---- 3|---------- 3------ 3----------10|
G| 8 8 8------ 8 8---------- 8----|---- 0-------- 0------ 0-- 9----|
D| 7 7 7---- 7------ 7---------- 7|-- 4-------- 4------ 4----------|
A|--------------------------------|--------------------------------|
E| 7------ 7------ 7------------ 0|------ 0---------------- 0------|
http://classicalguitartablature.blogspot.com/
E| 7-- 7 7------ 7------ 7--------| 7 7 7-- 8---- 5----------------|
B| 8-- 8 8--10-- 8--10-- 8---- 8--| 5-- 5---- 5-- 5---- 5--------10|
G| 9-- 9 9-- 9-- 9-- 9-- 9-- 9----| 5-- 5 5---------- 5------ 5----|
D|--------------------------------|---------------- 5------ 5------|
A|--------------------------------| 0------ 0---- 0------ 0--------|
E| 0------ 0------ 0------ 0------|--------------------------------|
http://classicalguitartablature.blogspot.com/
E|--------------------------------|---- 7 7------------------ 7----|
B|--1010---- 8--10----------------|10--------------------------10--|
G| 8 8 8---- 8-- 8---- 8------ 8--| 9---------- 9------ 9-- 9------|
D| 7 7 7---- 7-- 7-- 7-- 7-- 7----| 9-------- 9 9---- 9-- 9--------|
A|--------------------------------|--------------------------------|
E| 7------ 7------ 7------ 7------| 0------ 0------ 0------ 0------|
http://classicalguitartablature.blogspot.com/
E| 7-- 7 7------ 7------ 7------ 3|---------------------------- 3--|
B|10--1010--10--10--10--10-- 8-- 1|---------- 1------ 1---- 1----10|
G| 9---- 9-- 9-- 9-- 9-- 9-- 9----| 0---- 0---- 0------ 0-------- 8|
D|---------- 9------ 9-------- 9--|---- 2------ 2---- 2------ 2-- 7|
A|--------------------------------| 0------ 0------ 0---- 0--------|
E| 0------ 0------ 0------ 0------|------------------------------ 7|
http://classicalguitartablature.blogspot.com/
E|------------------------------ 0|------------------------------ 5|
B|--1010----10--10---- 7-- 8---- 3|---------- 3------ 3---- 3---- 5|
G|---- 8------------ 8-------- 8--|------ 0------ 0------ 0---- 0 4|
D|-- 7-- 7---- 7---- 7------ 7----|-- 4-------- 4------ 4---- 4----|
A|--------------------------------|------------------------------ 3|
E|-------- 7------ 7------ 7---- 0|-------- 0------ 0------ 0------|
http://classicalguitartablature.blogspot.com/
E|---------- 3 5-------------- 3--| 3-------- 2-- 3------------ 2--|
B|------ 5------------ 5----------| 0------------------ 0----------|
G|---- 4---------- 4---- 4-- 4----| 2---- 2------------ 2----------|
D|--------------------------------|---- 1------------ 1------ 1----|
A|------ 3------ 3------ 3--------| 2------ 2------ 2------ 2------|
E|--------------------------------|--------------------------------|
http://classicalguitartablature.blogspot.com/
E| 3-- 3 2-- 2-- 0---- 0 0-- 2----| 3-- 3 2-- 2-- 0------ 0------ 5|
B| 0-- 0 0-- 0-- 0-- 0-- 0---- 0--| 0-- 0 0-- 0-- 0---- 0-------- 0|
G| 4-- 4 2-- 2-- 0-- 0-- 0---- 2--| 4-- 4 2-- 2-- 0-- 0-------- 0 4|
D|--------------------------------|------------------------ 0------|
A|--------------------------------|------------------------------ 3|
E| 0------ 0------ 0------ 0------| 0------ 0------ 0------ 0------|
http://classicalguitartablature.blogspot.com/
E|---------- 3 5-------------- 3--| 3-------- 2-- 3------------ 2--|
B|------ 5------------ 5----------| 0------------------ 0----------|
G|---- 4---------- 4---- 4-- 4----| 2---- 2------------ 2----------|
D|--------------------------------|---- 1------------ 1------ 1----|
A|------ 3------ 3------ 3--------| 2------ 2------ 2------ 2------|
E|--------------------------------|--------------------------------|
http://classicalguitartablature.blogspot.com/
E| 3-- 3 2-- 2-- 0---- 0 0-- 2----| 3-- 3 2-- 2-- 0------ 0--------|
B| 0-- 0 0-- 0-- 0-- 0-- 0---- 0--| 0-- 0 0-- 0-- 0---- 0-------- 0|
G| 4-- 4 2-- 2-- 0-- 0-- 0---- 2--| 4-- 4 2-- 2-- 0-- 0-------- 0--|
D|--------------------------------|------------------------ 0------|
A|--------------------------------|--------------------------------|
E| 0------ 0------ 0------ 0------| 0------ 0------ 0------ 0------|
http://classicalguitartablature.blogspot.com/
E| 7------------------ 7---- 7----|--------------------------------|
B| 8--------10 8------ 8---- 8-- 8|---------- 7-- 5-- 5-- 8-- 8----|
G| 0-------- 0-- 0------ 0-- 0-- 0|---------- 0-- 0-- 0-- 0-- 0----|
D|---- 910------ 9-- 9---------- 9|-- 9-- 7-- 7-- 5-- 5-- 9-- 9----|
A|--------------------------------| 0------ 0------ 0------ 0------|
E| 0-------------- 0------ 0------|--------------------------------|
http://classicalguitartablature.blogspot.com/
E|--------------------------------|--------------------------------|
B| 8-- 8---- 7-- 5-- 5-- 4------ 7|---- 7 7 5 5-- 8------ 8--------|
G| 8-- 8---- 8-- 4-- 4-- 2------ 0|---- 0 0-- 0-- 0---- 0------ 0--|
D| 7---- 7-- 7-- 4---- 4 4-- 4-- 7|---- 7 7 5 5-- 9-- 9------ 9----|
A|---------------- 0--------------|--------------------------------|
E| 7---------------------- 0------| 0------ 0------ 0------ 0------|
http://classicalguitartablature.blogspot.com/
E| 7------------------ 7---- 7----|--------------------------------|
B| 8--------10 8------ 8---- 8-- 8|---------- 7-- 5-- 5-- 8-- 8----|
G| 0-------- 0-- 0------ 0-- 0-- 0|---------- 0-- 0-- 0-- 0-- 0----|
D|---- 910------ 9-- 9---------- 9|-- 9-- 7-- 7-- 5-- 5-- 9-- 9----|
A|--------------------------------| 0------ 0------ 0------ 0------|
E| 0-------------- 0------ 0------|--------------------------------|
http://classicalguitartablature.blogspot.com/
E|--------------------------------|---------------- 0-------- 7----|
B| 8-- 8---- 7-- 5-- 5-- 4------ 7|---- 7 7-- 8------------------10|
G| 8-- 8---- 8-- 4-- 4-- 2------ 0|---- 0 0------ 0------ 0 9------|
D| 7---- 7-- 7-- 4---- 4 4-- 4-- 7|---- 7 7 9-- 9------ 9----------|
A|---------------- 0--------------|--------------------------------|
E| 7---------------------- 0------| 0-------------- 0------ 0------|
http://classicalguitartablature.blogspot.com/
E|-- 7----------------------------|--------------------------------|
B|-- 8----------------------------|--------------------------------|
G| 0------------------------------|--------------------------------|
D|--------------------------------|--------------------------------|
A|--------------------------------|--------------------------------|
E| 0------------------------------|--------------------------------|
http://classicalguitartablature.blogspot.com/

0 ความคิดเห็น:

แสดงความคิดเห็น