To celebrate the anniversary, I am giving you (finally...) : iPhone LickByNeck !!!!!!

Hawaii 5-O

Popular TV theme song fingerstyle chord melody guitar arrangement played in the key of Cm.

Hawaii 5 o played in the key of Cm.
http://classicalguitartablature.blogspot.com/
E|--------------------------------|--------------------------------|
B|--------------------------------|--------------------------------|
G|--------------------------------| 5------------------------------|
D|--------------------------------| 4------------------------------|
A|--------------------------------| 3------------------------------|
E|-------------------- 3-- 3-- 3--|--------------------------------|
http://classicalguitartablature.blogspot.com/
E|--------------------------------|--------------------------------|
B|--------------------------------|--------------------------------|
G|--------------------------------| 5------------------------------|
D|--------------------------------| 5------------------------------|
A|--------------------------------| 3------------------------------|
E|-------------------- 3-- 3-- 3--|--------------------------------|
http://classicalguitartablature.blogspot.com/
http://classicalguitartablature.blogspot.com/
E|--------------------------------|--------------------------------|
B|-------------------- 3----------|--------------------------------|
G|---------------- 3---------- 5--|--------------------------------|
D|-------- 5-- 5-------------- 5--|------------ 5-------------- 5--|
A|--------------------------------| 3---------- 3-- 3--------------|
E|--------------------------------|------------------------------ 6|
http://classicalguitartablature.blogspot.com/
E|--------------------------------|--------------------------------|
B|--------------------------------|--------------------------------|
G|-------------------- 3----------|--------------------------------|
D|------ 5-- 5---- 3-------- 5----|---------------------------- 5--|
A|--------------------------------| 3---------- 3-- 3--------------|
E|------------ 6-- 6--------------|--------------------------------|
http://classicalguitartablature.blogspot.com/
E|--------------------------------|------------ 3------------------|
B|-------------------- 3------ 1--|------------ 1------------------|
G|---------------- 3---------- 3--|------------ 3------------------|
D|-------- 5-- 5-------------- 1--|---------------------------- 1--|
A| 6---------- 6-- 6--------------| 3---------- 3-- 3--------------|
E|--------------------------------|------------------------------ 6|
http://classicalguitartablature.blogspot.com/
E|---------------------------- 3--|--------------------------------|
B|------ 6---- 6 3------------ 4--|--------------------------------|
G|------ 3-- 3-- 3---- 3------ 3--|--------------------------------|
D|------ 3------------------------|---------------------------- 5--|
A| 2------------------------------| 6---------- 6-- 6--------------|
E|------ 6-- 6--------------------|--------------------------------|
http://classicalguitartablature.blogspot.com/
E|--------------------------------|-------- 6------ 3--------------|
B| 3------------------------------|-------- 4------ 4-- 6-- 4------|
G| 4------------------------------| 3------ 3------ 3---------- 5--|
D| 3---------- 3-------------- 3--| 5-------------------------- 5--|
A|--------------------------------| 3---------- 3-- 3--------------|
E| 3---------- 3-- 3--------------|--------------------------------|
http://classicalguitartablature.blogspot.com/
E|--------------------------------|------ 8------------------------|
B|--------------------------------|--------10------10-- 8-------- 1|
G| 0------------------------------|-------- 8----10--------10-- 7--|
D| 1-- 3-- 1------------------ 1--|---------------- 7--------------|
A| 3------ 3-- 3-- 3--------------| 8---------- 8-- 8--------------|
E|--------------------------------|--------------------------------|
http://classicalguitartablature.blogspot.com/
E|--------------------------------|---------- 3--------------------|
B|------------------------ 3------|---------- 4--------------------|
G| 1-- 3-- 1-- 3------ 5----------| 5---------- 5------------------|
D| 1---------- 3------------------| 5-------------------------- 5--|
A|--------------------------------| 3---------- 3-- 3--------------|
E| 4---------- 4-- 6--------------|------------------------------ 4|
http://classicalguitartablature.blogspot.com/
E|------ 1-- 1--------------------|--------------------------------|
B|------ 4-- 4-- 3---------- 1----|-------------------- 1 1--------|
G|------ 1-- 1-- 3---- 3---- 3----|-------------------- 3 3---- 1--|
D|-------------------- 3------ 1--|-------------------- 1-- 1-- 1--|
A|--------------------------------| 3---------- 3-- 3--------------|
E|------------ 4 6----------------|---------------------------- 4--|
http://classicalguitartablature.blogspot.com/
E|--------------------------------|--------------------------------|
B|--------------------------------|-------------------- 4----------|
G|--------------------------------|---------------- 4---------- 6--|
D|--------------------------------|-------- 6-- 6-------------- 6--|
A|--------------------------------|--------------------------------|
E|--------------------------------|--------------------------------|
http://classicalguitartablature.blogspot.com/
E|--------------------------------|--------------------------------|
B|--------------------------------|--------------------------------|
G|--------------------------------|------------------ 4------------|
D|------------ 6-------------- 6--|------ 6-- 6-- 4------------ 6--|
A| 4---------- 4-- 4--------------|--------------------------------|
E|--------------------------------| 7-------- 7-- 7----------------|
http://classicalguitartablature.blogspot.com/
E|--------------------------------|--------------------------------|
B|--------------------------------|-------------------- 4------ 2--|
G|--------------------------------|---------------- 4---------- 4--|
D|---------------------------- 6--|-------- 6-- 6-------------- 2--|
A| 4---------- 4-- 4--------------| 7---------- 7-- 7--------------|
E|--------------------------------|--------------------------------|
http://classicalguitartablature.blogspot.com/
E|---------------- 4--------------|---------------------------- 4--|
B|------------ 2-- 2--------------|------ 7-- 7-- 4---------- 5----|
G|------------ 4-- 4--------------|------ 4-- 4-- 4---- 4------ 4--|
D|------------ 2-------------- 2--|------ 4-- 4-- 4----------------|
A| 4---------- 4-- 4--------------|--------------------------------|
E|--------------------------------| 7---------- 7-- 7--------------|
http://classicalguitartablature.blogspot.com/
E|--------------------------------|--------------------------------|
B|--------------------------------|--------------------------------|
G|---------------------------- 4--| 5------------------------------|
D|---------------------------- 6--| 4-------------------------- 4--|
A|--------------------------------|------------------------------ 4|
E| 0---------- 0-- 0--------------| 4---------- 4-- 4--------------|
http://classicalguitartablature.blogspot.com/
E|------ 7-- 5-- 4----------------|--------------------------------|
B|------ 5-- 5-- 5-- 7-- 5-- 4----|---- 4--------------------------|
G|------ 3-- 4---- 4------------ 6|---------- 6--------------------|
D|------------------ 6-- 6------ 6|------ 6-- 6---------------- 6--|
A|------------ 4-- 4--------------| 4---------- 4-- 4--------------|
E|--------------------------------|--------------------------------|
http://classicalguitartablature.blogspot.com/
E|-------- 9-- 7-- 5--------------|--------------------------------|
B|-------- 5-- 5-- 5-- 8-- 5------|------------ 4------------------|
G| 6------ 6-- 6-- 6---------- 7 6|---- 4-- 6-- 4------ 6-- 4------|
D| 5---------------------------- 4|---- 4-- 4----------------------|
A|--------------------------------|--------------------------------|
E| 5---------- 5-- 5--------------| 5---------- 5 7----------------|
http://classicalguitartablature.blogspot.com/
E|------------ 4------------------|--------------------------------|
B| 2---------- 2------------------|-------- 7-- 7-- 4---------- 2--|
G| 4---------- 4------------------|------ 6---- 6-- 4-- 4------ 4--|
D| 2-------------------------- 2--|-------- 7-- 7-- 4---------- 2--|
A| 4---------- 4-- 4--------------|--------------------------------|
E|--------------------------------| 5---------- 5-- 7--------------|
http://classicalguitartablature.blogspot.com/
E|--------------------------------|--------------------------------|
B|-------------------- 2-- 2------|--------------------------------|
G|-------------------- 4-- 4-- 2--|--------------------------------|
D|-------------------- 2-- 2-- 2--|--------------------------------|
A| 4---------- 4-- 4--------------|--------------------------------|
E|---------------------------- 5--|--------------------------------|
http://classicalguitartablature.blogspot.com/
E|--------------------------------|--------------------------------|
B|-------------------- 5----------|--------------------------------|
G|---------------- 5---------- 7--|--------------------------------|
D|-------- 7-- 7-------------- 7--|------------ 7------------------|
A|--------------------------------| 5-------------- 5--------------|
E|--------------------------------|-------- 5-------------- 5------|
http://classicalguitartablature.blogspot.com/
E|--------------------------------|--------------------------------|
B|-------------------- 1----------|--------------------------------|
G|-------- 2-- 2-- 0--------------|--------------------------------|
D|---------------- 2---------- 7--|--------------------------------|
A| 3-------------- 3--------------| 5-------------- 5--------------|
E|-------- 3-------------- 3------|-------- 5-------------- 5------|
http://classicalguitartablature.blogspot.com/
E|-------------------- 0----------|------------ 5------------------|
B|---------------- 1--------------| 3---------- 3------------------|
G|-------- 2-- 2-- 2--------------| 5---------- 5------------------|
D|-------- 3----------------------| 3------------------------------|
A|-------- 3-------------- 3------| 5------ 0------ 5------ 0------|
E| 1-------------- 1--------------|--------------------------------|
http://classicalguitartablature.blogspot.com/
E|------ 3---- 3-- 0--------------|--------------------------------|
B|------ 1---- 1-- 1-- 1------10--|--------------------------------|
G|-------- 0-- 0-- 0----------10--|--------------------------------|
D|----------------------------10--|--------------------------------|
A| 3-------------- 3--------------| 8-------------- 8--------------|
E|-------- 3-------------- 3------|-------- 8-------------- 8------|
http://classicalguitartablature.blogspot.com/
E|--------------------------------|-------- 5----------------------|
B|--------------------------------|-------- 6---------- 8-- 6-- 5--|
G| 6------------------------------| 5------------------ 5------ 5--|
D| 5------------------------------| 7-- 7-------- 7----------------|
A|-------- 7-------------- 7------| 5-------------- 5--------------|
E| 5-------------- 5--------------|-------- 5-------------- 5------|
http://classicalguitartablature.blogspot.com/
E|--------------------------------|--------10---------- 8-- 6------|
B|---- 5--------------------------|-------- 6---------- 6-- 6-- 9--|
G| 7---------- 7------------------| 7------ 7---------- 7-- 7-- 7--|
D| 7------ 7----------------------| 6-------------------------- 6--|
A| 5-------------- 5--------------|-------- 8-------------- 8------|
E|-------- 5-------------- 5------| 6-------------- 6--------------|
http://classicalguitartablature.blogspot.com/
E|------------ 0------------------|------------ 5------------------|
B| 8-- 6------ 1------ 3-- 1------| 3---------- 3------------------|
G| 7-- 7-- 7-- 0------ 0-- 0------| 5------------------------------|
D| 6------ 6---------- 2-- 2------| 3------------------------------|
A|-------- 8------ 3--------------| 5------ 0-- 5---------- 0------|
E| 6---------------------- 3------|--------------------------------|
http://classicalguitartablature.blogspot.com/
E|--------------------------------|--------------------------------|
B|-------- 8-- 8-- 5---------- 3--|--------------------------------|
G|-------------------- 5------ 5--|--------------------------------|
D|---------------------------- 3--|--------------------------------|
A|--------------------------------| 5------ 0------ 5------ 0------|
E| 8------------------------------|--------------------------------|
http://classicalguitartablature.blogspot.com/
E|------ 3---- 3---------- 8--10--|--------------------------------|
B| 1------ 1-- 1------ 8-- 8--10--|--------------------------------|
G| 0------ 0-- 0-- 9------ 9--10--|--------------------------------|
D|----------------10--------------|--------------------------------|
A| 3----------------------10------|--------12-------------- 1------|
E|-------- 3------ 8--------------|10--------------10--------------|
http://classicalguitartablature.blogspot.com/
E|--------------------------------|-------- 1------ 6------ 8------|
B|------------------------ 1------| 3-------------- 6------ 8------|
G|---------------- 3--------------|---------------- 7------ 9------|
D| 0------ 3----------------------|--------------------------------|
A|--------------------------------|--------------------------------|
E|--------------------------------|---------------- 6------ 8------|
http://classicalguitartablature.blogspot.com/
E|10------------------------------|--------------------------------|
B|10------------------------------|10------------------------------|
G|--10----------------------------|10------------------------------|
D|--------------------------------|10------------------------------|
A|----------------12--------------|--------------------------------|
E|10----------10----------------10|------------10--10------------10|
http://classicalguitartablature.blogspot.com/
E|--------------------------------|--------------------------------|
B|10------------------------------|--------------------------------|
G|10------------------------------|-------------------- 4----------|
D|10------------------------------|-------- 0-- 0 3---------- 7----|
A|--------------------------------| 5-------------- 5--------------|
E|------------10--10--------------|--------------------------------|
http://classicalguitartablature.blogspot.com/
E|--------------------------------|------------------ 5------------|
B|------------------ 5------------|-------------- 6----------------|
G|-------------- 5---------- 7----|------ 7-- 7--------------12----|
D|-------- 7 7--------------------|--------------------------------|
A| 0-------- 0-- 0----------------| 0-------- 0-- 0-------------- 0|
E|--------------------------------|--------------------------------|
http://classicalguitartablature.blogspot.com/
E|------------------10------------|----------------11--15----------|
B|--------------11----------13----|--------13--13-------------- 6--|
G|------12--12--------------------|--------------------------------|
D|--------------------------------|--------------------------------|
A|---------- 0-- 0----------------| 0---------- 0-- 0--------------|
E|--------------------------------|--------------------------------|
http://classicalguitartablature.blogspot.com/
E|-------------------- 8------ 6--|---------------- 8--------------|
B|-------- 6-- 8-- 9---------- 6--|---------------- 8--------------|
G|---------------------------- 7--|---------------- 9--------------|
D|--------------------------------|--------------------------------|
A|-- 0-------- 0---- 0------------|--------------------------------|
E|--------------------------------|-------- 6-------------- 8------|
http://classicalguitartablature.blogspot.com/
E|10------------------------------|--------------------------------|
B|10------------------------------|--------------------------------|
G|10------------------------------|--------------------------------|
D|--------------------------------|--------------------------------|
A|-------- 5---- 0 5-- 0-- 5-- 0--| 5------------------------------|
E|--------------------------------|--------------------------------|
http://classicalguitartablature.blogspot.com/

0 ความคิดเห็น:

แสดงความคิดเห็น