To celebrate the anniversary, I am giving you (finally...) : iPhone LickByNeck !!!!!!

Hopelessly Devoted To You

Olivia Newton John's hit fingerstyle solo guitar arrangement played in the key of G.

Hopelessly Devoted To You played in the key of G.
http://classicalguitartablature.blogspot.com/
E|--------------------------------|--------------------------------|
B| 4-- 3-- 4-- 6-- 4-- 3------ 3 4|---- 3-- 4 6 3-------- 3------ 4|
G| 3-- 3-- 3-- 3-- 3-- 3---- 3----| 3-- 3-- 3-- 3------ 3------ 3--|
D|-- 5---- 5 5---------- 3--------|-- 5 5-- 5 5 3---- 3------ 3----|
A| 3---------------------------- 3|--------------------------------|
E|---------------- 3--------------|---------------- 3--------------|
http://classicalguitartablature.blogspot.com/
E|--------------------------------|--------------------------------|
B|------ 6------ 8-------- 9------|12-------------------- 3---- 0 3|
G|---- 3 4---- 4-- 5-- 5------ 7--|10------ 7-- 8-- 4-- 5-- 2-- 2 4|
D|-- 5------ 6------ 8------ 9----|--12------ 5 7---- 3 5---- 1 0--|
A| 3---- 5-------- 6------ 8------|10-- 0---------- 5-- 6----------|
E|--------------------------------|-------- 7---- 8-------- 1-- 2--|
http://classicalguitartablature.blogspot.com/
E|---------------------------- 2--|-- 3----------------------------|
B|---- 3------ 0 3------------ 3 1|-- 1 5--------------------------|
G|---- 4------ 0 3---- 3------ 2 0|-- 0 5------ 5------ 4------ 4--|
D|-- 4------ 1------ 2------ 1----|---- 5---- 5------ 5------ 5----|
A|--------------------------------|------ 5------ 3-------- 2------|
E| 3------ 1---- 2------ 1------ 0|--------------------------------|
http://classicalguitartablature.blogspot.com/
E|---------------------------- 2--|--------------------------------|
B| 1-------------- 1---------- 3--| 3---------------------------- 0|
G| 2-- 2------ 4-- 2-- 2------ 3--| 2-- 2------ 2-- 7-- 7------ 5 4|
D|-- 2------ 3------ 2------ 2----|-- 2------ 2------ 5------ 7----|
A| 0------------------------------|---------------- 7------ 6---- 5|
E|-------- 4------ 3------ 2------| 3------ 2----------------------|
http://classicalguitartablature.blogspot.com/
E|--------------------------------|--------------------------------|
B|---------- 0-- 0----------------|---------- 0 1-- 3---------- 0--|
G|---- 4---- 2 2 1---- 1------ 1--|---- 4---- 2 2------ 1---- 5-- 2|
D|-- 5------ 4------ 0------ 0----|-- 3------ 3 0---- 0------ 6----|
A|------ 3------ 2------ 1--------|---------------------- 5------ 3|
E|------------------------------ 5|-------- 3-- 1-- 0--------------|
http://classicalguitartablature.blogspot.com/
E|--------------------------------|--------------------------------|
B|--------------------------------| 0---------------------------- 3|
G|---- 2------ 1------ 2------ 2--| 2-- 2---- 4 3-- 2-- 2------ 4 4|
D|-- 2------ 0------ 2------ 2----|-- 0------ 3 3---- 2---- 3 3----|
A|------ 2------ 0----------------|---------------- 0--------------|
E|---------------------- 3--------| 2------ 4-------------- 4------|
http://classicalguitartablature.blogspot.com/
E|---------------------------- 2--|-- 3----------------------------|
B|---- 3------ 0 3------------ 3 1|-- 1 5--------------------------|
G|---- 4------ 0 3---- 3------ 2 0|-- 0 5------ 5------ 4------ 4--|
D|-- 4------ 1------ 2------ 1----|---- 5---- 5------ 5------ 5----|
A|--------------------------------|------ 5------ 3-------- 2------|
E| 3------ 1---- 2------ 1------ 0|--------------------------------|
http://classicalguitartablature.blogspot.com/
E|---------------------------- 2--|--------------------------------|
B| 1-------------- 1---------- 3--| 3---------------------------- 0|
G| 2-- 2------ 4-- 2-- 2------ 3--| 2-- 2------ 2-- 7-- 7------ 5 4|
D|-- 2------ 3------ 2------ 2----|-- 2------ 2------ 5------ 7----|
A| 0------------------------------|---------------- 7------ 6---- 5|
E|-------- 4------ 3------ 2------| 3------ 2----------------------|
http://classicalguitartablature.blogspot.com/
E|--------------------------------|--------------------------------|
B|---------- 0-- 0----------------|---------- 0 1-- 3---------- 0--|
G|---- 4---- 2 2 1---- 1------ 1--|---- 4---- 2 2------ 1---- 5-- 2|
D|-- 5------ 4------ 0------ 0----|-- 3------ 3 0---- 0------ 6----|
A|------ 3------ 2------ 1--------|---------------------- 5------ 3|
E|------------------------------ 5|-------- 3-- 1-- 0--------------|
http://classicalguitartablature.blogspot.com/
E|--------------------------------|--------------------------------|
B|--------------------------------| 0------------------ 0----------|
G|---- 2------ 1------ 2------ 2--| 2-- 2---- 4 3 2------------ 2--|
D|-- 2------ 0------ 2------ 2----|-- 0------ 3 3 2-------- 0---- 5|
A|------ 2------ 0----------------|---------------- 0---- 2------ 3|
E|---------------------- 3--------| 2------ 4----------------------|
http://classicalguitartablature.blogspot.com/
E|--------------------------------|-------------- 3----------------|
B|---- 4-------- 8-------- 9------|12------ 8---- 3------ 8------ 9|
G|-- 5-------- 4-- 5-- 5------ 7--|10------ 7-- 8 4------ 6---- 6 8|
D|---------- 3------ 8------ 9----|--12------ 5------ 3------ 8----|
A|------ 5-------- 6------ 8------|10-- 0-------- 5---- 6 7------ 8|
E|--------------------------------|------ 7---- 8------------------|
http://classicalguitartablature.blogspot.com/
E|-------------- 4---------- 3----|-------------- 6---- 8-------- 3|
B|---------- 8 6 6---- 6---- 6 6 9|---- 8 9---- 8 6------------ 6 4|
G|---- 8---- 6 6---- 5------ 3 3 8|---- 8 8---- 8 7-------- 7---- 3|
D|-- 6------ 8 8-------------- 6--|-- 6---- 6-------- 6------------|
A|------ 7------ 6------ 5--------|--------------------------------|
E|------------------------------ 8|------ 7------ 6------ 4------ 3|
http://classicalguitartablature.blogspot.com/
E|---------- 1-- 3----------------|-------------- 3----------------|
B|---------- 4 4 4------------ 4 8|---- 7 8---- 7 6----13----11-- 9|
G|---- 3---- 1 1-- 3-- 3---- 3-- 9|------ 5---- 5 5----10---- 9-- 8|
D| 5---------- 3---- 5------------|-- 8------ 5 7---- 312----11----|
A|-------------- 6-------- 4------|----------------------10---- 9--|
E|------ 1---------------------- 8|-------- 6-- 5 4----------------|
http://classicalguitartablature.blogspot.com/
E|---------------- 4------------ 4|---- 4 4---- 6 3---- 3----------|
B|---------- 8 6-- 6-- 6 1------ 6|---- 6 4---- 4 3---- 3------ 1 4|
G|---- 8---- 6 6---- 5-- 1--------|-- 5-- 4-- 4-- 1-- 1-------- 1 3|
D|-- 6------ 8 8------------ 1----|-------------------------- 3----|
A| 8------ 7------ 6---- 3---- 4--| 5------ 4---- 3------ 2------ 3|
E|--------------------------------|--------------------------------|
http://classicalguitartablature.blogspot.com/
E|--------------------------------|------------------------------ 4|
B|--------------------------------|------------------------------ 6|
G|------------ 5 4------------ 0--|---- 0------ 1 2---- 0------ 0 5|
D|-- 5 3---- 5------ 3------ 3----|-- 1------ 0------ 1 0---- 1----|
A|---- 5 6------ 5---- 3-- 2------| 1------ 2---- 3---- 1 0--------|
E|--------------------------------|------------------------------ 4|
http://classicalguitartablature.blogspot.com/
E|---- 4 4---- 6 3---- 3----------|--------------------------------|
B|---- 4 1---- 6-- 6--------------| 4------------------------------|
G|---- 3 1---- 5-- 3-- 3-- 7-- 5--|---- 4------ 6------ 8------ 9--|
D|-- 6------ 1------ 6------ 6 5--|-- 3------ 5------ 6------11----|
A|------------ 6-- 5-- 3----------|--------------------------------|
E|---- 3 1---------------- 6-- 5--| 4------ 6------ 7---- 9------11|
http://classicalguitartablature.blogspot.com/
E|--11----------------------------|--------------------------------|
B|--11----------------------------|--------------------------------|
G|10------------------------------|--------------------------------|
D|10------------------------------|--------------------------------|
A|--------------------------------|--------------------------------|
E|--------------------------------|--------------------------------|
http://classicalguitartablature.blogspot.com/

0 ความคิดเห็น:

แสดงความคิดเห็น