To celebrate the anniversary, I am giving you (finally...) : iPhone LickByNeck !!!!!!

I Don't Want To Talk About It

Rod Stewart's hit fingerstyle solo guitar arrangement played in the key of Am.

I Don't Want To Talk About It played in the key of E.
http://classicalguitartablature.blogspot.com/
E|------------------------------ 2|-------- 2-------------- 2------|
B|---------------------- 5---- 6 2|-------- 5-- 5-- 7------ 5-- 5--|
G| 4---------- 4-- 6-- 5 5---- 4 2|---- 2-- 2-- 2-- 4------ 2-- 2--|
D|---- 6---- 6---- 6-- 4-- 4-- 3--|---- 2------ 2------ 7------ 2--|
A| 4------------------------------|---------------- 6------ 4------|
E|-------- 7------ 6-- 5-- 4-- 3--| 2------ 0----------------------|
http://classicalguitartablature.blogspot.com/
E|-------------------- 4---- 2----|--------------------------------|
B| 7---- 7---- 5-- 7-------- 2-- 5|-------- 2----------------------|
G| 6-- 6 6---- 5-- 4-------- 2----| 4 4---- 4-- 4-- 4---- 4--------|
D|---- 7 6---- 4-- 4--------------| 6 6---- 4-- 4------ 6------ 6--|
A|--------------------------------| 7------ 6------ 4--------------|
E| 7------ 6-- 5-- 4------ 2------|------------------------ 7------|
http://classicalguitartablature.blogspot.com/
E|------------------------------ 2|-------- 2-------------- 2------|
B|---------------------- 5-- 6-- 2|-------- 5-- 5-- 7------ 5-- 5--|
G| 6---------- 5------ 4---- 4-- 2|---- 2-- 2-- 2-- 4------ 2-- 2--|
D|---- 6------ 4---- 4------ 3----|---- 2------ 2------ 7------ 2--|
A|--------------------------------|---------------- 6------ 4------|
E| 6------ 5------ 4-------- 3----| 2------ 0----------------------|
http://classicalguitartablature.blogspot.com/
E|-------------------- 4---- 2----|--------------------------------|
B| 7---- 7---- 5-- 7-------- 2-- 5|-------- 2----------------------|
G| 6-- 6 6---- 5-- 4-------- 2----| 4 4---- 4-- 4-- 4---------- 4--|
D|---- 7 6---- 4-- 4--------------| 6 6---- 4-- 4------ 4---- 2----|
A|--------------------------------| 7------ 6------ 5------ 4------|
E| 7------ 6-- 5-- 4------ 2------|--------------------------------|
http://classicalguitartablature.blogspot.com/
E|--------------------------------|------ 9---- 9-- 9------ 9------|
B|-------- 3---------- 3------ 510|------ 9---- 9--10------10------|
G|---- 4-- 2-- 2------ 1------ 5--| 9---- 9---- 9-- 9------ 9------|
D|-- 2------ 4------ 3------ 4----|----11 9------------11------11--|
A| 3------ 2---- 1------ 3--------| 0------11------ 9--------------|
E|---------------------- 4--------|------------------------12------|
http://classicalguitartablature.blogspot.com/
E|-------- 2-- 2---------- 5------|-------- 7-- 7-- 7------ 4------|
B|-------- 5-- 5-- 9------ 4------| 5------ 7-- 7-- 7------ 7-- 7--|
G| 4------ 2-- 2-- 8-- 8-- 4-- 4--| 4------ 8-- 8-- 6------ 4-- 4--|
D| 7-- 7------------ 7------ 4----| 6-- 6-------------- 6------ 4--|
A| 6------ 4----------------------|-------- 9------ 7------ 6------|
E|---------------- 7------ 5------| 4------------------------------|
http://classicalguitartablature.blogspot.com/
E|--------------------------------|-------- 5-- 5-- 5-- 5-- 4-- 5--|
B| 2-------------- 2--------------| 5------ 5-- 5-- 2-- 2-- 2------|
G| 4-- 4------ 3-- 1---------- 1--| 4------ 4-- 4-- 2-- 2-- 2------|
D|-- 2------ 2-------- 2----------| 4-- 4--------------------------|
A| 4---- 3-------- 2---- 1--------|--------------------------------|
E|--------------------------------| 5------ 4---- 2------ 0--------|
http://classicalguitartablature.blogspot.com/
E| 4------------------------------|-------- 5-- 5-- 5-- 5-- 4-- 5--|
B| 7-- 7-- 7------ 5-- 7----------| 5------ 5-- 5-- 2-- 2-- 2------|
G| 4-- 4-- 4------ 7-- 7----------| 4------ 4-- 4-- 2-- 2-- 2------|
D|------------ 6-- 7-- 6---- 6----| 4-- 4--------------------------|
A| 6------ 4----------------------|--------------------------------|
E|---------------- 7------ 6------| 5------ 4---- 2------ 0--------|
http://classicalguitartablature.blogspot.com/
E| 4------------------------------|---------- 4---- 2--------------|
B| 7-- 7-- 7------------------ 6--| 7-------- 5 5-- 2--------------|
G| 4------ 5---- 4-------- 9-- 7--| 6------ 4 4 4-- 2--------------|
D|-------- 7-- 7------ 6-- 7-- 6--|---- 4---- 6 6------ 2------ 2--|
A| 6------ 5------ 4--------------|--------------------------------|
E|------------------------ 8-- 7--| 5------ 4------ 2------ 0------|
http://classicalguitartablature.blogspot.com/
E|--------------------------------|--------------------------------|
B|---------------- 7-- 9------ 7--| 5------ 2-- 0------------------|
G| 4---------- 2-- 8-- 8------ 4--| 4-- 4-- 2-- 4---------- 4 4-- 4|
D|---- 4------ 2 7---- 7------ 4--| 4------ 2-- 6------ 6------ 4--|
A| 6------ 4----------------------|-------------- 7------ 6------ 4|
E|-------------- 7-------- 5---- 4|-------- 2----------------------|
http://classicalguitartablature.blogspot.com/
E|------------------------------ 2|---------- 4--------------------|
B|---------------------- 5---- 6--| 2-------- 5 5-- 7--------------|
G|------------ 4-- 6-- 5 5---- 4--| 2-- 2---- 2 2-- 4---------- 5--|
D|---- 6---- 6---- 6-- 4 4---- 3--|---- 2------ 2------ 7------ 7--|
A|--------------------------------|---------------- 6------ 5------|
E|-------- 7------ 6-- 5 4---- 3--| 2------ 0----------------------|
http://classicalguitartablature.blogspot.com/
E|---------------- 2-- 4----------|--------------------------------|
B|---------------- 2-- 5---- 7----| 5------------------------------|
G| 2-- 2------ 2-- 2-- 6---- 5----| 4------ 4------ 2--------------|
D|-- 2------ 4-------------- 4----| 2------ 3------ 2------ 1------|
A| 4------ 3------ 2--------------|--------------------------------|
E|-------------------- 6------ 5--| 4------ 3------ 2------ 1------|
http://classicalguitartablature.blogspot.com/
E|--------------------------------|--------------------------------|
B|--------------------------------|--------------------------------|
G| 1------------------------------|--------------------------------|
D| 4------------------------------|--------------------------------|
A|--------------------------------|--------------------------------|
E| 0------------------------------|--------------------------------|
http://classicalguitartablature.blogspot.com/

0 ความคิดเห็น:

แสดงความคิดเห็น