To celebrate the anniversary, I am giving you (finally...) : iPhone LickByNeck !!!!!!

I Want To Know What Love Is (BASIC)

The Foreigner's classic tune fingerstyle chord melody guitar BASIC arrangement played in the key of Em.

I Want To Know What Love Is - BASIC ARRANGEMENT played in the key of Em
http://classicalguitartablature.blogspot.com/
E|--------------------------------|---- 3 0---- 0------------------|
B| 0------ 0-- 0------ 0----------|---- 0-- 3------ 0--------------|
G| 0------ 0-- 0------ 0---- 2----|---- 0-- 0------ 0---------- 0--|
D| 0------------ 0---- 0---- 4----|-------- 0-------------- 0------|
A|-------------------------- 5----|--------------------------------|
E| 0-------------- 0--------------| 3------------------------------|
http://classicalguitartablature.blogspot.com/
E|--------------------------------|--------------------------------|
B| 1-------- 1---- 8------ 8---- 8|---------------- 8------ 8------|
G| 0-------- 0---- 7------ 7---- 7|---------------- 7------ 7---- 7|
D| 2-------- 2---- 9------ 9---- 9|---------------- 9------ 9---- 9|
A| 3-------- 3--------------------|-------- 7--10-- 7--------------|
E|---------------- 0--------------| 7--10--------------------------|
http://classicalguitartablature.blogspot.com/
E|--------------------------------|--------------------------------|
B|------ 0---- 0 0 0--------------|-------- 0-------------- 0-- 0--|
G|------ 0---------- 2 2-- 0---- 0|-------- 0------------------ 2--|
D|---- 0--------------------------|---- 0-------------- 0----------|
A|--------------------------------|--------------------------------|
E| 0------------------------------| 3------------ 3 3--------------|
http://classicalguitartablature.blogspot.com/
E|--------------------------------|--------------------------------|
B| 1 0---------- 0-- 0------------|---------------------- 8------ 0|
G| 0---- 2-- 0------------ 2 0----|---------------------- 7------ 7|
D| 2------------------------------|---------------------- 9--------|
A| 3------------------------------|-------- 710-- 7----------------|
E|---------------- 0--------------| 7--10--------------------------|
http://classicalguitartablature.blogspot.com/
E|--------------------------------|--------------------------------|
B|---------- 0 0 0----------------|---------------------------- 0--|
G|-------- 0-------- 2 2-- 0------| 0------ 0------------ 0-- 2 0--|
D|-- 0----------------------------| 0------------------ 0----------|
A|--------------------------------|--------------------------------|
E| 0------------------------------| 3------------ 3 3--------------|
http://classicalguitartablature.blogspot.com/
E|--------------------------------|-------------- 0-------- 3------|
B| 1 0---------- 0---- 0----------|-------- 0---- 0-------- 3------|
G| 0---- 2-- 0-- 0---- 0---- 2 0--|-------- 0---- 0-------- 4------|
D| 2------------------------ 2 2--|-- 2-------- 2------------------|
A| 3------------------------------|--------------------------------|
E|---------------- 0--------------| 0-------------- 0------ 3------|
http://classicalguitartablature.blogspot.com/
E| 5------------------------------| 7-- 5--------------------------|
B| 5-- 8 5-------------- 5-- 5----| 7-- 7------ 8-- 7-- 5-------- 5|
G| 5-- 5 5------------ 5 5-- 5----| 7-- 7---------- 5-- 5-------- 7|
D|---- 5 5---------- 5-- 5-- 5----|---------------- 5-- 5------ 5 7|
A|--------------------------------|--------------------------------|
E| 5-------- 5 5------------------| 5------ 5------ 5------ 5------|
http://classicalguitartablature.blogspot.com/
E|------------ 5------------------| 7-- 5--------------------------|
B|---- 8------ 5---- 8 5-- 5-- 5--| 7-- 7---- 8-- 7---- 5----------|
G|---- 7------ 5---- 5 5-- 5-- 5--| 7-- 7-------- 5---- 5----------|
D|---- 7------------ 5 5-- 5-- 5--|-------------- 5---- 5---- 5----|
A|--------------------------------|--------------------------------|
E| 5------ 5------ 5------ 5------| 5------ 5------ 5---- 5------ 5|
http://classicalguitartablature.blogspot.com/
E|-- 7---- 5---- 5----------------| 7-- 5--------------------------|
B|-- 7---- 7 8-- 5-- 8-- 5-- 5----| 7-- 7---- 8-- 7---- 5-------- 8|
G|-- 7---- 7 7-- 5-- 5-- 5-- 5----| 7-- 7-------- 5---- 5-------- 7|
D|---------- 5------ 5-- 5-- 5----|-------------- 5---- 5---- 5-- 7|
A|--------------------------------|--------------------------------|
E|------ 5------ 5-------- 5------| 5------ 5------ 5---- 5------ 8|
http://classicalguitartablature.blogspot.com/
E|------ 7------ 8------ 7--------|--------------------------------|
B|------ 7------ 5------ 5---- 8--|---- 5-------------- 5----------|
G|------ 7------ 5------ 5---- 5--|-- 7---------- 7---------- 7----|
D|---- 7---- 7------ 5-------- 7--|-- 7------ 7--------------------|
A|------------------------------ 5|--------------------------------|
E|------ 7-------- 5---- 3--------|--------------------------------|
http://classicalguitartablature.blogspot.com/
E|---------- 7 7 7 7--------------|------------------10------------|
B|---------- 8 8 8 8 8---- 8--10--|------------10--------10----12--|
G| 7------ 7 7 7-- 7 7---- 7--11--|--------11----------------------|
D| 9-- 9------------------ 9--12--|----12----------12--------------|
A|10---------------------- 7------|--------------------------------|
E|--------------------------------|10------------------------------|
http://classicalguitartablature.blogspot.com/
E|-------------- 8---- 7 7---- 7--|--------------------10----------|
B|------------ 5 5---- 5-- 5-- 8--|--10--------10----------10--12--|
G|-------- 5------ 5-- 5-- 5-- 7--|--11--------11--11--------------|
D|---- 5--------------------------|--12----12----------------------|
A|---------------------------- 7--|--------------------------------|
E| 5------------------------------|----10--------------------------|
http://classicalguitartablature.blogspot.com/
E|--------10101010----------------|------------------10------------|
B|------ 8-- 8 8 8-- 8-- 8----10--|------------10--------10----12--|
G|---- 7---- 7 7 7------ 7----11--|--------11----------------------|
D|---------------------- 9----12--|----12----------12--------------|
A|10---------------------- 7------|--------------------------------|
E|--------------------------------|10------------------------------|
http://classicalguitartablature.blogspot.com/
E|-------------- 8---- 7 7---- 7--|-- 5----------------------------|
B|------------ 5 5---- 5-- 5-- 8--|-- 5---------- 5----------------|
G|-------- 5------ 5-- 5-- 5-- 7--|-- 5------ 5------------ 5------|
D|---- 5--------------------------|-------- 5---------- 5------ 5--|
A|---------------------------- 7--|-- 5-------------------------- 5|
E| 5------------------------------|--------------------------------|
http://classicalguitartablature.blogspot.com/
E|--------------------------------| 0------------------------------|
B|--------------------------------| 0------------------------------|
G|-------- 5----------------------| 0------------------------------|
D|---- 5------ 5------------------|--------------------------------|
A|------------------------ 7--10--|--------------------------------|
E|---------------- 7--10----------| 0------------------------------|
http://classicalguitartablature.blogspot.com/

0 ความคิดเห็น:

แสดงความคิดเห็น