To celebrate the anniversary, I am giving you (finally...) : iPhone LickByNeck !!!!!!

James Bond Theme

Classic movie theme fingerstyle solo guitar arrangement played in the key of Em.

The James Bond Theme played in the key of Em.
http://classicalguitartablature.blogspot.com/
E|--------------------------------|--------------------------------|
B|--------------------------------|--------------------------------|
G| 4-------------- 5------------ 6|-------------- 5----------------|
D| 5-------------- 5--------------| 5------------ 5----------------|
A|-------- 7-------------- 7------|------ 7---------------- 7------|
E| 0-------------- 0--------------| 0-------------- 0--------------|
http://classicalguitartablature.blogspot.com/
E|--------------------------------|--------------------------------|
B|--------------------------------|--------------------------------|
G| 4-------------- 5------------ 6|-------------- 5----------------|
D| 5-------------- 5--------------| 5------------ 5----------------|
A|-------- 7-------------- 7------|------ 7---------------- 7------|
E| 0-------------- 0--------------| 0-------------- 0--------------|
http://classicalguitartablature.blogspot.com/
http://classicalguitartablature.blogspot.com/
E| 0 2-- 2-- 2-------- 0-- 0-- 0--|--------------------------------|
B| 0---- 0-- 0---- 1------ 1------| 5 8 8 8-- 8------ 7-- 7---- 7--|
G| 0---- 0-- 0---- 0------ 0------| 6---- 6-- 6-- 5------ 5--------|
D|------ 2---------------- 2------| 5---- 5---- 5 5------ 5--------|
A|--------------------------------|-------- 7------------ 7--------|
E| 0-------------- 0--------------| 0------------ 0----------------|
http://classicalguitartablature.blogspot.com/
E| 0 2-- 2-- 2-------- 0-- 0-- 0--|--------------------------------|
B| 0---- 0-- 0---- 1------ 1------| 5 8 8 8-- 8------ 7-- 7---- 7--|
G| 0---- 0-- 0---- 0------ 0------| 6---- 6-- 6-- 5------ 5--------|
D|------ 2---------------- 2------| 5---- 5---- 5 5------ 5--------|
A|--------------------------------|-------- 7------------ 7--------|
E| 0-------------- 0--------------| 0------------ 0----------------|
http://classicalguitartablature.blogspot.com/
E| 0 2-- 2-- 2-------- 0-- 0-- 0--|------------------------------11|
B| 0---- 0-- 0---- 1------ 1------| 5 8 8 8-- 8------ 7-- 6---- 5 8|
G| 0---- 0-- 0---- 0------ 0------| 6---- 6-- 6-- 5-------- 5------|
D|------ 2---------------- 2------| 5---- 5---- 5 5-------- 5---- 9|
A|--------------------------------|-------- 7-------------- 7------|
E| 0-------------- 0--------------| 0------------ 0-------------- 0|
http://classicalguitartablature.blogspot.com/
E|----10------------------ 7------| 7------------------------------|
B|---- 8------------------1010----| 5------------------------------|
G|---------------- 9-------- 9----| 6-------------- 5--------------|
D|----------------10----------10--|---------------- 5--------------|
A|-------- 7-------------- 7------|-------- 7-------------- 7------|
E|---------------- 0--------------| 0-------------- 0--------------|
http://classicalguitartablature.blogspot.com/
E| 0 2-- 2-- 2-------- 0-- 0-- 0--|--------------------------------|
B| 0---- 0-- 0---- 1------ 1------| 5 8 8 8-- 8------ 7-- 7---- 7--|
G| 0---- 0-- 0---- 0------ 0------| 6---- 6-- 6-- 5------ 5--------|
D|------ 2---------------- 2------| 5---- 5---- 5 5------ 5--------|
A|--------------------------------|-------- 7------------ 7--------|
E| 0-------------- 0--------------| 0------------ 0----------------|
http://classicalguitartablature.blogspot.com/
E| 0 2-- 2-- 2-------- 0-- 0-- 0--|--------------------------------|
B| 0---- 0-- 0---- 1------ 1------| 5 8 8 8-- 8------ 7-- 7---- 7--|
G| 0---- 0-- 0---- 0------ 0------| 6---- 6-- 6-- 5------ 5--------|
D|------ 2---------------- 2------| 5---- 5---- 5 5------ 5--------|
A|--------------------------------|-------- 7------------ 7--------|
E| 0-------------- 0--------------| 0------------ 0----------------|
http://classicalguitartablature.blogspot.com/
E| 0 2-- 2-- 2-------- 0-- 0-- 0--|------------------------------11|
B| 0---- 0-- 0---- 1------ 1------| 5 8 8 8-- 8------ 7-- 6---- 5 8|
G| 0---- 0-- 0---- 0------ 0------| 6---- 6-- 6-- 5-------- 5------|
D|------ 2---------------- 2------| 5---- 5---- 5 5-------- 5---- 9|
A|--------------------------------|-------- 7-------------- 7------|
E| 0-------------- 0--------------| 0------------ 0-------------- 0|
http://classicalguitartablature.blogspot.com/
E|----10------------------ 7------| 7------------------------------|
B|---- 8------------------1010----| 5------------------------------|
G|---------------- 9-------- 9----| 6-------------- 5--------------|
D|----------------10----------10--|---------------- 5--------------|
A|-------- 7-------------- 7------|-------- 7-------------- 7------|
E|---------------- 0--------------| 0-------------- 0--------------|
http://classicalguitartablature.blogspot.com/
E|--------------------------------|--------------------------------|
B|--------------------------------|--------------------------------|
G| 4-------------- 5------------ 6|-------------- 5----------------|
D| 5-------------- 5--------------| 5------------ 5----------------|
A|-------- 7-------------- 7------|------ 7---------------- 7------|
E| 0-------------- 0--------------| 0-------------- 0--------------|
http://classicalguitartablature.blogspot.com/
E|--------------------------------|--------------------------------|
B|--------------------------------|--------------------------------|
G| 4-------------- 5------------ 6|-------------- 5-------------- 9|
D| 5-------------- 5--------------| 5------------ 5-------------- 9|
A|-------- 7-------------- 7------|------ 7---------------- 7------|
E| 0-------------- 0--------------| 0-------------- 0--------------|
http://classicalguitartablature.blogspot.com/
E|------------1110-------------- 6|---- 7------------------------ 3|
B|---- 8-------- 8------------ 8 8|---- 8------ 8------ 8------ 8 0|
G|-------------- 9------------ 9 6|---- 6------ 6------ 5------ 5--|
D|--------------10----10------10--|--------------------------------|
A|--------------------------------|--------------------------------|
E| 0---- 0------ 0------ 0--------| 0---- 0-------- 0--------------|
http://classicalguitartablature.blogspot.com/
E|-- 5 3 2------------------------|--------------------------------|
B|------ 0---------------- 5-- 2--|---- 2------ 2------ 1------ 1--|
G| 0---- 0------------ 4-- 5-- 0--|---- 0------ 0------ 0------ 0 9|
D|---------------------------- 2--|---- 2------ 2------ 2------ 2 9|
A|--------------------------------|--------------------------------|
E| 0------ 0------ 0------ 0------| 0-------------- 0---- 0--------|
http://classicalguitartablature.blogspot.com/
E|------------1110-------------- 6|---- 7------------------------ 3|
B|---- 8-------- 8------------ 8 8|---- 8------ 8------ 8------ 8 0|
G|-------------- 9------------ 9 6|---- 6------ 6------ 5------ 5--|
D|--------------10----10------10--|--------------------------------|
A|--------------------------------|--------------------------------|
E| 0---- 0------ 0------ 0--------| 0---- 0-------- 0--------------|
http://classicalguitartablature.blogspot.com/
E|-- 5 3 2-------------------- 0--|--------------------------------|
B|------ 0-------------- 4---- 2--|---- 2------ 2------ 1------ 1--|
G| 0---- 0------------ 4 5---- 0--|---- 0------ 0------ 0------ 0 9|
D|--------------------------------|---- 2------ 2------ 2------ 2 9|
A|--------------------------------|--------------------------------|
E| 0------ 0---- 0-------- 0------| 0-------------- 0------ 0------|
http://classicalguitartablature.blogspot.com/
E|------------1110-------------- 6|---- 7------------------------ 3|
B|---- 8-------- 8------------ 8 8|---- 8------ 8------ 8------ 8 0|
G|-------------- 9------------ 9 6|---- 6------ 6------ 5------ 5--|
D|--------------10----10------10--|--------------------------------|
A|--------------------------------|--------------------------------|
E| 0---- 0------ 0------ 0--------| 0---- 0-------- 0--------------|
http://classicalguitartablature.blogspot.com/
E|-- 5 3 2------------------------|--------------------------------|
B|------ 0---------------- 5-- 2--|---- 2------ 2------ 1------ 1--|
G| 0---- 0------------ 4-- 5-- 0--|---- 0------ 0------ 0------ 0 9|
D|---------------------------- 2--|---- 2------ 2------ 2------ 2 9|
A|--------------------------------|--------------------------------|
E| 0------ 0------ 0------ 0------| 0-------------- 0---- 0--------|
http://classicalguitartablature.blogspot.com/
E|------------1110-------------- 6|---- 7------------------------ 3|
B|---- 8-------- 8------------ 8 8|---- 8------ 8------ 8------ 8 0|
G|-------------- 9------------ 9 6|---- 6------ 6------ 5------ 5--|
D|--------------10----10------10--|--------------------------------|
A|--------------------------------|--------------------------------|
E| 0---- 0------ 0------ 0--------| 0---- 0-------- 0--------------|
http://classicalguitartablature.blogspot.com/
E|-- 5 3 2-------------------- 0--|--------------------------------|
B|------ 0-------------- 4---- 2--|---- 2------ 2------ 1------ 1--|
G| 0---- 0------------ 4 5---- 0--|---- 0------ 0------ 0------ 0--|
D|--------------------------------|---- 2------ 2------ 2------ 2--|
A|--------------------------------|--------------------------------|
E| 0------ 0---- 0-------- 0------| 0-------------- 0------ 0------|
http://classicalguitartablature.blogspot.com/
E| 0-------------------- 2------ 3|------------------------------ 0|
B| 0-- 5------ 5 7-- 5-- 4------ 5|-- 8-------- 8 7------ 7------ 0|
G| 0-- 4------ 4 4-- 6-- 2------ 4|---- 5------ 5 8-- 9-- 4------ 0|
D|---- 5------ 5 7---- 5------ 4--|-- 7-------- 7 7---- 7------ 7--|
A|-------- 5---- 6---- 7----------|---------------------- 6--------|
E| 0-------------------- 2--------| 3---- 5-------- 7-- 9----------|
http://classicalguitartablature.blogspot.com/
E|---- 0------ 0 2------ 2--------|------------------------------ 7|
B|---- 3------ 3 4---- 5 5------ 8|---- 8------ 8-- 7-------- 7-- 5|
G|---- 2------ 2 2---- 4-------- 5|---- 7------ 7-- 8-- 9---- 4-- 6|
D|-------------- 4---- 2---- 2-- 5|---- 6------ 6-- 7---- 7---- 7--|
A|--------------------------------|---------------------------- 6--|
E| 0------ 1---- 2------ 3--------| 5------ 6------ 7---- 9--------|
http://classicalguitartablature.blogspot.com/
E|---- 7---------------- 7---- 7--|-------------- 7-- 7-- 7 7 7----|
B|---- 5---------------- 5---- 5--|-------------- 5-------- 5-- 5--|
G|---- 6---------------- 6---- 6--|-------------- 6-- 6-- 6 6-- 6--|
D| 5---------------------- 5------|-------------- 5----------------|
A|--------------------------------|--------------------------------|
E|------------ 7------------------|---- 7--------------------------|
http://classicalguitartablature.blogspot.com/
E|--------------------------------|--------------------------------|
B|--------------------------------|--------------------------------|
G| 4-------------- 5------------ 6|-------------- 5----------------|
D| 5-------------- 5--------------| 5------------ 5----------------|
A|-------- 7-------------- 7------|------ 7---------------- 7------|
E| 0-------------- 0--------------| 0-------------- 0--------------|
http://classicalguitartablature.blogspot.com/
E| 0 2-- 2-- 2-------- 0-- 0-- 0--|--------------------------------|
B| 0---- 0-- 0---- 1------ 1------| 5 8 8 8-- 8------ 7-- 7---- 7--|
G| 0---- 0-- 0---- 0------ 0------| 6---- 6-- 6-- 5------ 5--------|
D|------ 2---------------- 2------| 5---- 5---- 5 5------ 5--------|
A|--------------------------------|-------- 7------------ 7--------|
E| 0-------------- 0--------------| 0------------ 0----------------|
http://classicalguitartablature.blogspot.com/
E| 0 2-- 2-- 2-------- 0-- 0-- 0--|--------------------------------|
B| 0---- 0-- 0---- 1------ 1------| 5 8 8 8-- 8------ 7-- 7---- 7--|
G| 0---- 0-- 0---- 0------ 0------| 6---- 6-- 6-- 5------ 5--------|
D|------ 2---------------- 2------| 5---- 5---- 5 5------ 5--------|
A|--------------------------------|-------- 7------------ 7--------|
E| 0-------------- 0--------------| 0------------ 0----------------|
http://classicalguitartablature.blogspot.com/
E| 0 2-- 2-- 2-------- 0-- 0-- 0--|------------------------------11|
B| 0---- 0-- 0---- 1------ 1------| 5 8 8 8-- 8------ 7-- 6---- 5 8|
G| 0---- 0-- 0---- 0------ 0------| 6---- 6-- 6-- 5-------- 5------|
D|------ 2---------------- 2------| 5---- 5---- 5 5-------- 5---- 9|
A|--------------------------------|-------- 7-------------- 7------|
E| 0-------------- 0--------------| 0------------ 0-------------- 0|
http://classicalguitartablature.blogspot.com/
E|----10------------------ 7------| 7------------------------------|
B|---- 8------------------1010----| 5------------------------------|
G|---------------- 9-------- 9----| 6-------------- 5--------------|
D|----------------10----------10--|---------------- 5--------------|
A|-------- 7-------------- 7------|-------- 7-------------- 7------|
E|---------------- 0--------------| 0-------------- 0--------------|
http://classicalguitartablature.blogspot.com/
E|--------------------------------|---- 2--------------------------|
B|------------ 4 3----------------|------ 6--------------------11--|
G|---- 0---------------------- 4--|-------------------- 7----------|
D| 2-------------------- 5--------|-------------- 9----------------|
A| 2-------------------- 2--------|--------------------------------|
E|--------------------------------|-------------- 7----------------|
http://classicalguitartablature.blogspot.com/
E|--------------------11--10------|--------------------------------|
B|10----------10------------------|-------------- 7----------------|
G|------10------------------------|-------------- 6----------------|
D|--------------------------------|-------------- 5----------------|
A|--------------------------------|--------------------------------|
E|------ 7------------------------|------------ 0------------------|
http://classicalguitartablature.blogspot.com/

0 ความคิดเห็น:

แสดงความคิดเห็น