To celebrate the anniversary, I am giving you (finally...) : iPhone LickByNeck !!!!!!

Mission Impossible Theme

Steven King's fingerstyle solo guitar arrangement played in the key of Gm.

Mission Impossible played in the key of Gm.
http://classicalguitartablature.blogspot.com/
E|--------------------------------1011----|11101111--1010111011101110--111415------|
B|----------------------------------------|----------------------------------------|
G|----------------------------------------|-------------------------------- 0------|
D|-------------------------------- 0------|----------------------------------------|
A|----------------------------------------|----------------------------------------|
E|----------------------------------------|----------------------------------------|
http://classicalguitartablature.blogspot.com/
E|----------------------------------------|----------------------------------------|
B|----------------------------------------|----------------------------------------|
G|------------------------ 3---- 5--------|----------------------------------------|
D| 5---------- 5---------- 3---- 5------ 5|---------- 5---------- 3------ 4------ 5|
A| 5---------- 5---------- 1------ 3---- 5|---------- 5------------ 3---- 4------ 5|
E| 3---------- 3------------------------ 3|---------- 3------------ 1------ 2---- 3|
http://classicalguitartablature.blogspot.com/
http://classicalguitartablature.blogspot.com/
E|----------------------------------------|-------------------------------------- 6|
B|----------------------------------------|----------------------------------------|
G|---------------------- 3------ 5--------|----------------------------------------|
D|---------- 5---------- 3------ 5------ 5|---------- 5---------- 3------ 4--------|
A|---------- 5---------- 1------ 3------ 5|---------- 5---------- 3------ 4--------|
E|---------- 3-------------------------- 3|---------- 3---------- 1------ 2------ 3|
http://classicalguitartablature.blogspot.com/
E| 3------------------------------------ 6| 3------------------------------------ 6|
B|---- 3----------------------------------|----------------------------------------|
G|----------------------------------------|---- 6----------------------------------|
D|----------------------------------------|----------------------------------------|
A|-------------------------------- 3------|----------------------------------------|
E|------------ 3---------- 6------------ 3|-------------- 3-------- 1------ 2---- 3|
http://classicalguitartablature.blogspot.com/
E| 3--------------------------------------|-------------------------------------- 3|
B|----------------------------------------|-------------------------------------- 3|
G|------ 5------------------------------ 3|-- 5------------------------------------|
D|-------------------------------------- 3|-- 5------------------------------------|
A|------------------------------ 3--------|----------------------------------------|
E|---------------- 3------ 6------------ 3|------------ 3---------- 1------ 2------|
http://classicalguitartablature.blogspot.com/
E|---------- 3---------- 6------ 8------ 3|---------- 3---------- 1------ 2------ 3|
B|---------- 3---------- 6------ 8------ 3|---------- 3---------- 1------ 2------ 3|
G| 3-------- 3---------- 6------ 8------ 3|---------- 3---------- 1------ 2--------|
D|----------------------------------------|----------------------------------------|
A|----------------------------------------|----------------------------------------|
E| 3-------- 3---------- 6------ 8------ 3|------------ 3---------- 1---- 2--------|
http://classicalguitartablature.blogspot.com/
E|---------- 3---------- 6------ 8------ 3|---------- 3---------- 1------ 2--------|
B|---------- 3---------- 6------ 8------ 3|---------- 3---------- 1------ 2--------|
G| 3-------- 3---------- 6------ 8------ 3|---------- 3---------- 1------ 2------ 3|
D|----------------------------------------|----------------------------------------|
A|----------------------------------------|----------------------------------------|
E| 3-------- 3---------- 6------ 8------ 3|------------ 3---------- 1---- 2------ 3|
http://classicalguitartablature.blogspot.com/
E|----------------------------------------|----------------------------------------|
B|------ 7--------------------------------|------ 6--------------------------------|
G|-------------------------------------- 3|-------------------------------------- 3|
D|-- 5------------------------------------|-- 5------------------------------------|
A|------------------------------ 3--------|----------------------------------------|
E|-------------- 3-------- 6------------ 3|-------------- 3-------- 1------ 2---- 3|
http://classicalguitartablature.blogspot.com/
E|----------------------------------------|--------------------------------------11|
B|------ 5------------------------------ 4|-- 3------------------------------------|
G|-------------------------------------- 3|----------------------------------------|
D|-- 5---------------------------------- 3|----------------------------------------|
A|------------------------------ 3--------|----------------------------------------|
E|-------------- 3-------- 6------------ 3|---------- 3---------- 6------ 7------ 8|
http://classicalguitartablature.blogspot.com/
E| 8------------------------------------11| 8------------------------------------11|
B|---- 8----------------------------------|----------------------------------------|
G|----------------------------------------|----11----------------------------------|
D|----------------------------------------|----------------------------------------|
A|------------------------------ 8--------|----------------------------------------|
E|------------ 8----------11------------ 8|-------------- 8-------- 6---- 7------ 8|
http://classicalguitartablature.blogspot.com/
E|-- 8------------------------------------|----------------------------------------|
B|----------------------------------------|----------------------------------------|
G|------10--------------------------------| 810---------------------------------- 3|
D|----------------------------------------| 8--10----------------------------------|
A|------------------------------ 8--------|----------------------------------------|
E|-------------- 8--------11--------------| 8---------- 8---------- 6------ 7---- 3|
http://classicalguitartablature.blogspot.com/
E|----------------------------------------|----------------------------------------|
B|------ 7--------------------------------|------ 6--------------------------------|
G|-------------------------------------- 3|-------------------------------------- 3|
D|-- 5------------------------------------|-- 5------------------------------------|
A|------------------------------ 3--------|----------------------------------------|
E|-------------- 3-------- 6------------ 3|-------------- 3-------- 1------ 2---- 3|
http://classicalguitartablature.blogspot.com/
E|----------------------------------------|----------------------------------------|
B|------ 5------------------------------ 4|-- 3------------------------------------|
G|-------------------------------------- 3|----------------------------------------|
D|-- 5---------------------------------- 3|----------------------------------------|
A|------------------------------ 3--------|----------------------------------------|
E|-------------- 3-------- 6------------ 3|------------ 3------------ 1---- 2------|
http://classicalguitartablature.blogspot.com/
E|----------------------------------------|----------------------------------------|
B|----------------------------------------|----------------------------------------|
G|------------------------ 3---- 5--------|----------------------------------------|
D| 5---------- 5---------- 3---- 5------ 5|---------- 5---------- 3------ 4------ 5|
A| 5---------- 5---------- 1------ 3---- 5|---------- 5------------ 3---- 4------ 5|
E| 3---------- 3------------------------ 3|---------- 3------------ 1------ 2---- 3|
http://classicalguitartablature.blogspot.com/
E|----------------------------------------|-------------------------------------- 6|
B|----------------------------------------|----------------------------------------|
G|---------------------- 3------ 5--------|----------------------------------------|
D|---------- 5---------- 3------ 5------ 5|---------- 5---------- 3------ 4--------|
A|---------- 5---------- 1------ 3------ 5|---------- 5---------- 3------ 4--------|
E|---------- 3-------------------------- 3|---------- 3---------- 1------ 2------ 3|
http://classicalguitartablature.blogspot.com/
E| 3------------------------------------ 6| 3------------------------------------ 6|
B|---- 3----------------------------------|----------------------------------------|
G|----------------------------------------|---- 6----------------------------------|
D|----------------------------------------|----------------------------------------|
A|-------------------------------- 3------|----------------------------------------|
E|------------ 3---------- 6------------ 3|-------------- 3-------- 1------ 2---- 3|
http://classicalguitartablature.blogspot.com/
E| 3--------------------------------------|----------------------------------------|
B|----------------------------------------|-------------------------------- 9------|
G|------ 5------------------------------ 3|-- 5------------------------------------|
D|-------------------------------------- 3|-- 5-------------------- 8--------------|
A|------------------------------ 3--------|----------------------------------------|
E|---------------- 3------ 6------------ 3|------------ 3---------- 6------ 7------|
http://classicalguitartablature.blogspot.com/
E|----------------------------------------|----------------------------------------|
B| 8---------------------- 9------ 8------|---------------------- 9------ 8--------|
G|----------------------------------------|----------------------------------------|
D|----------10----------------------------|---------- 9----------------------------|
A|-------------------------------- 8------|----------------------------------------|
E| 8-------- 8------------11------------ 8|---------- 8---------- 6------ 7------ 8|
http://classicalguitartablature.blogspot.com/
E|----------------------------------------|----------------------------------------|
B|----------------------------------------| 9-- 8----------------------------------|
G|----------------------------------------| 8------------------------------------ 3|
D|---------- 8----------------------------| 8--------------------------------------|
A|------------------------ 6------ 8------|----------------------------------------|
E|---------- 8----------------------------| 8---------- 8---------- 6------ 7---- 3|
http://classicalguitartablature.blogspot.com/
E|----------------------------------------|----------------------------------------|
B|------ 7--------------------------------|------ 6--------------------------------|
G|-------------------------------------- 3|-------------------------------------- 3|
D|-- 5------------------------------------|-- 5------------------------------------|
A|------------------------------ 3--------|----------------------------------------|
E|-------------- 3-------- 6------------ 3|-------------- 3-------- 1------ 2---- 3|
http://classicalguitartablature.blogspot.com/
E|----------------------------------------|----------------------------------------|
B|------ 5--------------------------------|---------------------- 6------ 8--------|
G|-------------------------------------- 8|---- 7------ 7-------- 5------ 7------ 7|
D|-- 5---------------------------------- 8|-- 7-------- 7-------- 3------ 5------ 7|
A|------------------------------ 3------ 6|-- 5-------- 5------------------------ 5|
E|-------------- 3-------- 6--------------|----------------------------------------|
http://classicalguitartablature.blogspot.com/
E|---------------------------- 1----------| 3--------------------------------------|
B|-------------------------- 2------------| 4--------------------------------------|
G|------------ 7------------ 3------------| 5--------------------------------------|
D|------------ 7------------ 1------------| 3--------------------------------------|
A|------------ 5------------ 2------------| 4--------------------------------------|
E|----------------------------------------|----------------------------------------|
http://classicalguitartablature.blogspot.com/

0 ความคิดเห็น:

แสดงความคิดเห็น