To celebrate the anniversary, I am giving you (finally...) : iPhone LickByNeck !!!!!!

Never On Sunday

Popular tune fingerstyle chord melody guitar arrangement played in the key of Eb.

Never On Sunday played in the key of Eb.
http://classicalguitartablature.blogspot.com/
E|------------------------ 3-- 4--|-------------- 6------ 6------ 6|
B|------ 4---- 3-- 4-- 6-- 3-- 4--|11----11---- 9 9------ 9-- 9-- 6|
G|-- 3-- 1---- 3-- 5-- 5-- 3-- 3--| 8---- 8------ 6------ 6-- 6----|
D|---- 3 3---- 3-- 5-- 4----------|----10-------------- 8---- 8----|
A|-------- 2-- 1------------------| 8-------------- 7------------ 6|
E| 4-------------- 5-- 4-- 3-- 2--|--------------------------------|
http://classicalguitartablature.blogspot.com/
E|------ 6-- 4------ 8------ 6----|---------------- 3--------------|
B|---- 6--------11--11-- 9-- 9----| 8------ 8-------------- 4------|
G|-- 5----------10--10-- 8---- 8--|------ 7-------------- 5--------|
D|-------------- 8------ 6--------|---- 8------ 8------ 5------ 5--|
A|--------------------------------|--------------------------------|
E|--------------10---- 9 8---- 7--| 6-------------- 5--------------|
http://classicalguitartablature.blogspot.com/
E|------------------------ 3-- 4--|---------------- 6---- 6-- 4-- 6|
B|-------- 4-- 3-- 4 6-- 2--------|11----11---- 9 5------ 6------ 6|
G|---- 3---------- 3------ 3------| 8-- 8-------- 3---- 3 5-- 5-- 5|
D|---- 3---------- 3--------------|--10---------------- 5----------|
A|--------------------------------| 8------------------------------|
E| 4-------------- 3------ 2------|---------------- 3---- 4--------|
http://classicalguitartablature.blogspot.com/
E|------ 6------------------------|--------------------------------|
B|------ 9-- 9-- 8-- 9------ 8-- 4|-------- 4----------------------|
G|------ 5-- 7-- 8-- 8--10--10-- 3|------ 3------------ 3---- 3----|
D|-- 5------ 6-- 6-- 6-- 8-- 8----|---- 5------ 5------ 5------ 5--|
A|--------------------------------| 6------------ 4------ 4------ 3|
E| 5---- 6------ 7-- 8-- 9----10--|--------------------------------|
http://classicalguitartablature.blogspot.com/
E|------------------------ 3-- 4--|-------------- 6------ 6------ 6|
B|------ 4---- 3-- 4-- 6-- 3-- 4--|11----11---- 9 9------ 9-- 9-- 6|
G|---- 3 1---- 3-- 5-- 5-- 3-- 3--| 8---- 8------ 6------ 6-- 6----|
D|---- 1 3---- 3-- 5-- 4----------|----10-------------- 8---- 8----|
A|-------- 2-- 1------------------| 8-------------- 7------------ 6|
E|---------------- 5-- 4-- 3-- 2--|--------------------------------|
http://classicalguitartablature.blogspot.com/
E|------ 6-- 4------ 8------ 6----|---------------- 3--------------|
B|---- 6--------11--11-- 9---- 9--| 8------ 8-------------- 4------|
G|-- 5----------10--10-- 8---- 8--|------ 7-------------- 5--------|
D|-------------- 8------ 6--------|---- 8------ 8------ 5------ 5--|
A|--------------------------------|--------------------------------|
E|--------------10---- 9 8---- 7--| 6-------------- 5--------------|
http://classicalguitartablature.blogspot.com/
E|------------------------ 3-- 4--|---------------- 6---- 6-- 4-- 6|
B|-------- 4-- 3-- 4 6-- 2--------|11----11---- 9 5------ 6------ 6|
G|---- 3---------- 3------ 3------| 8-- 8-------- 3---- 3 5-- 5-- 5|
D|---- 3---------- 3--------------|--10---------------- 5----------|
A|--------------------------------| 8------------------------------|
E| 4-------------- 3------ 2------|---------------- 3---- 4--------|
http://classicalguitartablature.blogspot.com/
E|------ 6------------------------|--------------------------------|
B|------ 9-- 9-- 8-- 9------ 8-- 4|-------- 4---------- 1------ 1--|
G|------ 5-- 7-- 8-- 8--10--10-- 3|------ 3---------- 1-------- 1--|
D|-- 5------ 6-- 6-- 6-- 8-- 8----|---- 5------ 5------ 1------ 1--|
A|--------------------------------| 6------------------------------|
E| 5---- 6------ 7-- 8-- 9----10--|-------------- 1-------- 1------|
http://classicalguitartablature.blogspot.com/
E|-------- 6------ 8------10------|11------------------------------|
B|-------- 4------10------ 9------|11------11----------11----11----|
G| 5------ 3------ 8------10------|10----10------------10----10----|
D|---- 3------ 5------10----------|----10------10------10------10--|
A|---------------- 9------ 8-- 7--|--------------------------------|
E| 4------ 3----------------------|11--------------10------10------|
http://classicalguitartablature.blogspot.com/
E|------10--11--13------11------10|--------------------------------|
B|------11------ 8------11------ 6|-------- 6----------------------|
G|------10--10-- 8------11--11----| 7---- 7---------- 3------ 3----|
D|-- 9---------------- 8----------|-- 6-------- 6---- 3-------- 3--|
A|--------------------------------|------------------------------10|
E| 9------------ 8------ 7--------| 6------------ 4----------------|
http://classicalguitartablature.blogspot.com/
E|------ 8--10--11------10------ 8|--------------------------------|
B|---- 8--------10----10-------- 9|-------- 9----------------------|
G|-- 8-------------- 8------ 8----|------ 8---------- 8------ 8----|
D|--------------------------------|--10--------10----10------10----|
A|-------------- 9-------------- 8|--------------------------------|
E|--------------------------------|--------------11------11------10|
http://classicalguitartablature.blogspot.com/
E|---------- 8--10------ 6--------|--------------------------------|
B|------11------ 9------ 9--------| 8------ 8----------------------|
G|----1010--------10--10-- 8------| 7---- 7------------ 8------ 8 8|
D|-- 8---- 8------------------ 6--|---- 8------ 8------ 8------ 8--|
A|--------------------------------|--------------------------------|
E|-------- 9------ 8------ 7------| 6-------------- 8------ 8---- 9|
http://classicalguitartablature.blogspot.com/
E|-------------- 8------10--------|11------------------------------|
B|--------11------11---- 8--------| 8------ 8----------------------|
G|--------10------10---- 8--------| 8---- 8------------ 8---- 8----|
D|---- 9------10------ 8---- 7----|---- 8------ 8------ 6---- 6----|
A|--------------------------------|--------------------------------|
E|--------10------ 9------ 7------| 8------------ 7------ 7--------|
http://classicalguitartablature.blogspot.com/
E|------10--11--13------11------10|--------------------------------|
B|---- 8--------13------13------11|--------------------------------|
G|---- 8--------11----11----11--10|------10------------10----10----|
D|---- 8--------------------------|----12----12--------10------10--|
A|----------------12--------------|11------------10------10--------|
E| 6------------------------------|--------------------------------|
http://classicalguitartablature.blogspot.com/
E|------ 8--10----11----10------ 8|------ 8------------------------|
B|----10---------- 9--------------|------ 8------------------------|
G|-- 8---------------- 8----------|---- 6---- 6-------- 5---- 5----|
D|--------------------10----10----|-------------------- 6---- 6----|
A| 9------------ 8----------------| 7------------ 6------ 6--------|
E|--------------------------------|------------------------------10|
http://classicalguitartablature.blogspot.com/
E|------------ 8--10------ 6------|--------------------------------|
B|--------11------ 9------ 9---- 4|-------- 4----------------------|
G|----10--10------10--10-- 8---- 3|------ 3------------ 3---- 3----|
D|-- 8---- 8---------------- 6----|---- 5------ 5------ 5------ 5--|
A|--------------------------------| 6------------ 4------ 4------ 3|
E|-------- 9------ 8------ 7------|--------------------------------|
http://classicalguitartablature.blogspot.com/
E|------------------------ 3-- 4--|-------------- 6------ 6------ 6|
B|------ 4---- 3-- 4-- 6-- 3-- 4--|11----11---- 9 9------ 9-- 9-- 6|
G|---- 3 1---- 3-- 5-- 5-- 3-- 3--| 8---- 8------ 6------ 6-- 6----|
D|---- 1 3---- 3-- 5-- 4----------|----10-------------- 8---- 8----|
A|-------- 2-- 1------------------| 8-------------- 7------------ 6|
E|---------------- 5-- 4-- 3-- 2--|--------------------------------|
http://classicalguitartablature.blogspot.com/
E|------ 6-- 4------ 8------ 6----|---------------- 3--------------|
B|---- 6--------11--11-- 9---- 9--| 8------ 8-------------- 4------|
G|-- 5----------10--10-- 8---- 8--|------ 7-------------- 5--------|
D|-------------- 8------ 6--------|---- 8------ 8------ 5------ 5--|
A|--------------------------------|--------------------------------|
E|--------------10---- 9 8---- 7--| 6-------------- 5--------------|
http://classicalguitartablature.blogspot.com/
E|------------------------ 3-- 4--|---------------- 6---- 6-- 4-- 6|
B|-------- 4-- 3-- 4 6-- 2--------|11----11---- 9 5------ 6------ 6|
G|---- 3---------- 3------ 3------| 8-- 8-------- 3---- 3 5-- 5-- 5|
D|---- 3---------- 3--------------|--10---------------- 5----------|
A|--------------------------------| 8------------------------------|
E| 4-------------- 3------ 2------|---------------- 3---- 4--------|
http://classicalguitartablature.blogspot.com/
E|------ 6------------------------|--------------------------------|
B|------ 9-- 9-- 8-- 9------ 8-- 4|-------- 4----------------------|
G|------ 5-- 7-- 8-- 8--10--10-- 3|------ 3------------ 3---- 3----|
D|-- 5------ 6-- 6-- 6-- 8-- 8----|---- 5------ 5------ 5------ 5--|
A|--------------------------------| 6------------ 4------ 4------ 3|
E| 5---- 6------ 7-- 8-- 9----10--|--------------------------------|
http://classicalguitartablature.blogspot.com/
E|------------------------ 3-- 4--|-------------- 6------ 6------ 6|
B|------ 4---- 3-- 4-- 6-- 3-- 4--|11----11---- 9 9------ 9-- 9-- 6|
G|---- 3 1---- 3-- 5-- 5-- 3-- 3--| 8---- 8------ 6------ 6-- 6----|
D|---- 1 3---- 3-- 5-- 4----------|----10-------------- 8---- 8----|
A|-------- 2-- 1------------------| 8-------------- 7------------ 6|
E|---------------- 5-- 4-- 3-- 2--|--------------------------------|
http://classicalguitartablature.blogspot.com/
E|------ 6-- 4------ 8------ 6----|---------------- 3--------------|
B|---- 6--------11--11-- 9---- 9--| 8------ 8-------------- 4------|
G|-- 5----------10--10-- 8---- 8--|------ 7-------------- 5--------|
D|-------------- 8------ 6--------|---- 8------ 8------ 5------ 5--|
A|--------------------------------|--------------------------------|
E|--------------10---- 9 8---- 7--| 6-------------- 5--------------|
http://classicalguitartablature.blogspot.com/
E|------------------------ 3-- 4--|---------------- 6---- 6-- 4-- 6|
B|-------- 4-- 3-- 4 6-- 2--------|11----11---- 9 5------ 6------ 6|
G|---- 3---------- 3------ 3------| 8-- 8-------- 3---- 3 5-- 5-- 5|
D|---- 3---------- 3--------------|--10---------------- 5----------|
A|--------------------------------| 8------------------------------|
E| 4-------------- 3------ 2------|---------------- 3---- 4--------|
http://classicalguitartablature.blogspot.com/
E|------ 6------------------------|--------------------------------|
B|------ 9-- 9-- 8-- 9------ 8-- 4|-------- 4------ 1-- 1---- 3----|
G|------ 5-- 7-- 8-- 8--10--10-- 3|------ 3-------- 1-- 2---- 3----|
D|-- 5------ 6-- 6-- 6-- 8-- 8----|---- 5------ 5-- 1-- 1---- 3----|
A|--------------------------------| 6------------------------------|
E| 5---- 6------ 7-- 8-- 9----10--|---------------- 1---- 2---- 3--|
http://classicalguitartablature.blogspot.com/
E|------------------------ 3-- 4--|---------------- 6---- 6-- 4-- 6|
B|-------- 4-- 3-- 4 6-- 2--------|11----11---- 9 5------ 6------ 6|
G|---- 3---------- 3------ 3------| 8-- 8-------- 3---- 3 5-- 5-- 5|
D|---- 3---------- 3--------------|--10---------------- 5----------|
A|--------------------------------| 8------------------------------|
E| 4-------------- 3------ 2------|---------------- 3---- 4--------|
http://classicalguitartablature.blogspot.com/
E|------ 6------------------------|--------------------------------|
B|------ 9-- 9-- 8-- 9------ 8-- 4|-------- 4------ 1-- 1---- 3----|
G|------ 5-- 7-- 8-- 8--10--10-- 3|------ 3-------- 1-- 2---- 3----|
D|-- 5------ 6-- 6-- 6-- 8-- 8----|---- 5------ 5-- 1-- 1---- 3----|
A|------------------------------ 6|--------------------------------|
E| 5---- 6------ 7-- 8-- 9----10--|---------------- 1---- 2---- 3--|
http://classicalguitartablature.blogspot.com/
E|------------------------ 3-- 4--|---------------- 6---- 6-- 4-- 6|
B|-------- 4-- 3-- 4 6-- 2--------|11----11---- 9 5------ 6------ 6|
G|---- 3---------- 3------ 3------| 8-- 8-------- 3---- 3 5-- 5-- 5|
D|---- 3---------- 3--------------|--10---------------- 5----------|
A|--------------------------------| 8------------------------------|
E| 4-------------- 3------ 2------|---------------- 3---- 4--------|
http://classicalguitartablature.blogspot.com/
E|------ 6------------------------|--------------------------------|
B|------ 9-- 9-- 8-- 9------ 8-- 4|-------------- 4----------------|
G|------ 5-- 7-- 8-- 8--10--10-- 3|-------------- 3----------------|
D|-- 5------ 6-- 6-- 6-- 8-- 8-- 5|-------------- 5----------------|
A|--------------------------------| 6------------ 6----------------|
E| 5---- 6------ 7-- 8-- 9----10--|------ 3-- 6--------------------|
http://classicalguitartablature.blogspot.com/

0 ความคิดเห็น:

แสดงความคิดเห็น