To celebrate the anniversary, I am giving you (finally...) : iPhone LickByNeck !!!!!!

Norwegian Wood

Beatles' tune fingerstyle solo guitar arrangement played in the key of D.

Norwegian Wood played in the key of D.
http://classicalguitartablature.blogspot.com/
E|------------------------|------------------------|
B|------------------------|------------------------|
G|---------- 5------------|------ 5----------------|
D|------ 4-------- 4------|------ 5----------------|
A| 5----------------------|------------------------|
E|------------------------| 5------------ 8--------|
http://classicalguitartablature.blogspot.com/
E|------------------------|------------------------|
B|------------------------|------------------------|
G|---------- 5------------|------ 5----------------|
D|------ 4-------- 4------|------ 5----------------|
A| 5----------------------|------------------------|
E|---------------------- 5|-------------- 8--------|
http://classicalguitartablature.blogspot.com/
http://classicalguitartablature.blogspot.com/
E|------------------------|------------------------|
B|------------------------|------------------------|
G|---------- 5------------|------ 5----------------|
D|------ 4-------- 4------|------ 5----------------|
A| 5----------------------|------------------------|
E|------------------------| 5------------ 8--------|
http://classicalguitartablature.blogspot.com/
E|------------------------|---------------------- 5|
B|------------------------|---------------------- 7|
G|---------- 5------------|------ 5----------------|
D|------ 4-------- 4------|------ 5----------------|
A| 5----------------------|------------------------|
E|---------------------- 5|-------------- 8--------|
http://classicalguitartablature.blogspot.com/
E|---------------------- 7|------ 5----------------|
B|---------------- 7---- 5|------ 5------ 8------ 7|
G| 5-------- 5---------- 5|------ 5------ 7------ 5|
D|------ 7----------------|-------------- 7--------|
A| 5----------------------|---------------------- 5|
E|------------------------| 5------------ 8--------|
http://classicalguitartablature.blogspot.com/
E|------------------------|------------------------|
B|------------------------| 5------ 8---- 7------ 3|
G|---------- 5------------| 5------------ 7--------|
D|------ 7-------- 7------| 5------------ 7--------|
A|------------------------|---------------------- 5|
E|------------------------| 5-------------- 8------|
http://classicalguitartablature.blogspot.com/
E|------------------------|------------------------|
B|------------------------|------ 8----------------|
G| 5-------- 5------------| 5------------ 4--------|
D|-------- 4---- 4--------| 5----------------------|
A|------------------------|---------------- 3------|
E|------------------------| 5----------------------|
http://classicalguitartablature.blogspot.com/
E|------------------------|---------------------- 5|
B|------------------------|---------------------- 7|
G| 2-------- 2---------- 5|------------------------|
D|-------- 4---- 4--------|------ 5----------------|
A| 5----------------------|------------------------|
E|---------------------- 5|-------------- 8--------|
http://classicalguitartablature.blogspot.com/
E|---------------------- 7|------ 5----------------|
B|---------------- 7---- 5|------ 5------ 8------ 7|
G| 5-------- 5---------- 5|------ 5------ 7------ 5|
D|------ 7----------------|-------------- 7--------|
A| 5----------------------|---------------------- 5|
E|------------------------| 5------------ 8--------|
http://classicalguitartablature.blogspot.com/
E|------------------------|------------------------|
B|------------------------| 5------ 8---- 7------ 3|
G|---------- 5------------| 5------------ 7--------|
D|------ 7-------- 7------| 5------------ 7--------|
A|------------------------|---------------------- 5|
E|------------------------| 5-------------- 8------|
http://classicalguitartablature.blogspot.com/
E|------------------------|------------------------|
B|------------------------|------ 8----------------|
G| 5-------- 5------------| 5------------ 4--------|
D|-------- 4---- 4--------| 5----------------------|
A|------------------------|---------------- 3------|
E|------------------------| 5----------------------|
http://classicalguitartablature.blogspot.com/
E|------------------------|----------------------13|
B|------------------------|--------------10------10|
G| 2-------- 2------------| 5------------ 7------10|
D|-------- 4---- 4--------|------ 5------ 7--------|
A| 5----------------------|------------------------|
E|------------------------| 5------------ 8--------|
http://classicalguitartablature.blogspot.com/
E|------13------13------13|------12------12------12|
B|------10------10------10|------10------10------10|
G|------10------10------10|------10------10------10|
D|------------------------|------------------------|
A|------------------------|------------------------|
E|10--------------------10|----------------------10|
http://classicalguitartablature.blogspot.com/
E|------10------10--------|------10--------------10|
B|------10------10------13|------10------13------10|
G|------10------10------10|------10------10------10|
D|----------------------10|--------------10--------|
A|------------------------|----------------------10|
E|----------------------10|------------------------|
http://classicalguitartablature.blogspot.com/
E|------------------------|------------------------|
B|------------------------| 6------ 5---- 5------ 5|
G|------10------10--------| 5------ 5---- 5------ 7|
D|------ 9------ 9------ 3|-------- 3------ 3------|
A|------------------------|------------------------|
E|------------------------| 5----------------------|
http://classicalguitartablature.blogspot.com/
E|------------------------|----------------------13|
B|------------------------|--------------10--------|
G|-------- 7------ 7------| 7------------ 9--------|
D| 5------ 5--------------|------ 7------ 8--------|
A|------------------------|------------------------|
E| 7-------------------- 8|-------------- 9------10|
http://classicalguitartablature.blogspot.com/
E|------13------13--------|13------12----12------12|
B|10----10------10--------|13------13----13------10|
G|10----10------10--------|12------12------12---- 9|
D|------------------------|------------------------|
A|------------------------|------------------------|
E|------------------------|12----------------------|
http://classicalguitartablature.blogspot.com/
E|--------10----10------ 8|------10------ 8------10|
B|--------10----10------10|------10------10------10|
G|-------- 9---- 9--------| 8---- 8------ 8------10|
D|------------------------|------------------------|
A| 8----------------------| 9--------------------10|
E|------------------------|------------------------|
http://classicalguitartablature.blogspot.com/
E|------------------------|------------------------|
B|------------------------| 6------ 5---- 5------ 5|
G|------10------10--------| 5------ 5---- 5--------|
D|------ 9------ 9------ 3|-------- 3------ 3------|
A|------------------------|------------------------|
E|------------------------| 5----------------------|
http://classicalguitartablature.blogspot.com/
E|------------------------|---------------------- 5|
B|------------------------| 5-------------------- 7|
G| 7-------------- 7------| 2------------ 2--------|
D|-------- 5--------------|-------- 5--------------|
A|------------------------| 4----------------------|
E| 7----------------------|------------------------|
http://classicalguitartablature.blogspot.com/
E|---------------------- 7|------ 5----------------|
B|---------------- 7---- 5|------ 5------ 8------ 7|
G| 5-------- 5---------- 5|------ 5------ 7------ 5|
D|------ 7----------------|-------------- 7--------|
A| 5----------------------|---------------------- 5|
E|------------------------| 5------------ 8--------|
http://classicalguitartablature.blogspot.com/
E|------------------------|------------------------|
B|------------------------| 5------ 8---- 7------ 3|
G|---------- 5------------| 5------------ 7--------|
D|------ 7-------- 7------| 5------------ 7--------|
A|------------------------|---------------------- 5|
E|------------------------| 5-------------- 8------|
http://classicalguitartablature.blogspot.com/
E|------------------------|------------------------|
B|------------------------|------ 8----------------|
G| 5-------- 5------------| 5------------ 4--------|
D|-------- 4---- 4--------| 5----------------------|
A|------------------------|---------------- 3------|
E|------------------------| 5----------------------|
http://classicalguitartablature.blogspot.com/
E|------------------------|---------------------- 5|
B|------------------------|---------------------- 7|
G| 2-------- 2---------- 5|------------------------|
D|-------- 4---- 4--------|------ 5----------------|
A| 5----------------------|------------------------|
E|---------------------- 5|-------------- 8--------|
http://classicalguitartablature.blogspot.com/
E|---------------------- 7|------ 5----------------|
B|---------------- 7---- 5|------ 5------ 8------ 7|
G| 5-------- 5---------- 5|------ 5------ 7------ 5|
D|------ 7----------------|-------------- 7--------|
A| 5----------------------|---------------------- 5|
E|------------------------| 5------------ 8--------|
http://classicalguitartablature.blogspot.com/
E|------------------------|------------------------|
B|------------------------| 5------ 8---- 7------ 3|
G|---------- 5------------| 5------------ 7--------|
D|------ 7-------- 7------| 5------------ 7--------|
A|------------------------|---------------------- 5|
E|------------------------| 5-------------- 8------|
http://classicalguitartablature.blogspot.com/
E|------------------------|------------------------|
B|------------------------|------ 8----------------|
G| 5-------- 5------------| 5------------ 4--------|
D|-------- 4---- 4--------| 5----------------------|
A|------------------------|---------------- 3------|
E|------------------------| 5----------------------|
http://classicalguitartablature.blogspot.com/
E|------------------------|------------------------|
B|------------------------| 0----------------------|
G| 2-------- 2------------| 2------ 2------ 0------|
D|-------- 4---- 4--------| 2----------------------|
A| 5-------------------- 0|---------------- 3------|
E|------------------------|------------------------|
http://classicalguitartablature.blogspot.com/
E|------------------------|------------------------|
B|------------------------|------------------------|
G|------------------------|------------------------|
D|------------ 4----------|------------------------|
A|-------- 5--------------|------------------------|
E|------------------------|------------------------|
http://classicalguitartablature.blogspot.com/

0 ความคิดเห็น:

แสดงความคิดเห็น