To celebrate the anniversary, I am giving you (finally...) : iPhone LickByNeck !!!!!!

Open Arms (BASIC)

Journey's classic tune fingerstyle chord melody guitar BASIC arrangement played in the key of D.

Open Arms - BASIC ARRANGEMENT played in the key of D.
http://classicalguitartablature.blogspot.com/
E|-------- 0---------- 2--|------------------------|
B|------------------------| 3------------ 3--------|
G| 2----------------------|---- 2------ 2------ 2--|
D| 4----------------------|-------- 4--------------|
A| 5----------------------|---------------------- 4|
E|------------------------|------------------------|
http://classicalguitartablature.blogspot.com/
E|------------------------|------------------------|
B|-------- 5---------- 2--| 2-- 3------------------|
G| 2-------------- 2------| 0---------- 0------ 0--|
D|---- 2------ 2----------| 0------ 0------ 0------|
A|------------------------| 2----------------------|
E|------------------------|------------------------|
http://classicalguitartablature.blogspot.com/
http://classicalguitartablature.blogspot.com/
E|------------------------|------------------------|
B| 3------ 2------ 3------| 2-------------- 2------|
G| 2------ 2------ 2------| 2---- 2---- 2-- 2------|
D|---- 4------ 4------ 4--|---- 2-------------- 2--|
A| 2----------------------| 0----------------------|
E|------------------------|------------------------|
http://classicalguitartablature.blogspot.com/
E|------------------------|------------------------|
B| 0---------- 0----------| 2------ 3------ 5------|
G| 0------ 0---------- 0--| 0------ 0------ 0------|
D|---- 0---------- 0------|---- 2 4---- 4 5---- 5--|
A|------------------------| 0-------------------- 5|
E| 3----------------------|------------------------|
http://classicalguitartablature.blogspot.com/
E|------ 0---------- 2----|------------------------|
B|------------------ 3-- 3|-------------- 3--------|
G| 2------------ 2--------|---- 2------ 2------ 2--|
D| 4-- 4------ 4----------|------ 4----------------|
A|------------------------|---------------------- 4|
E|------------------------|------------------------|
http://classicalguitartablature.blogspot.com/
E|------------------------|------------------------|
B|-------- 5---------- 2--| 2-- 3------------------|
G| 2-------------- 2------| 0---------- 0------ 0--|
D|---- 2------ 2----------| 0------ 0------ 0------|
A|------------------------| 2----------------------|
E|------------------------|------------------------|
http://classicalguitartablature.blogspot.com/
E|------------------------|------------------------|
B| 3------ 2------ 3------| 2-------------- 2------|
G| 2------ 2------ 2------| 2---- 2---- 2-- 2------|
D|---- 4------ 4------ 4--|---- 2-------------- 2--|
A| 2----------------------| 0----------------------|
E|------------------------|------------------------|
http://classicalguitartablature.blogspot.com/
E|------------------------|------------------------|
B| 0---------- 0----------|------------ 0----------|
G| 0------ 0---------- 0--|-------- 0---------- 0--|
D|---- 0---------- 0------|---- 0---------- 0------|
A|------------------------|------------------------|
E| 3----------------------| 3----------------------|
http://classicalguitartablature.blogspot.com/
E| 0---- 0-------------- 0|---------------------- 2|
B| 0------ 0------ 0-- 3 0|---- 3 0------------ 0 3|
G| 0-- 0------ 0-------- 0|---- 0 0-------- 0---- 2|
D|------------------------|------------ 0----------|
A|------------------------|---------------------- 2|
E| 0----------------------| 0----------------------|
http://classicalguitartablature.blogspot.com/
E|------------------------|------------------------|
B|------ 5------ 3------ 0|------------ 0------ 2 3|
G|-------- 2---- 2--------| 2---- 2-------------- 2|
D|---- 4------ 4------ 4--|---- 0-------- 0--------|
A|---------------------- 2|------------------------|
E|------------------------|------------------------|
http://classicalguitartablature.blogspot.com/
E|------------------------|------------------------|
B|------------ 3------ 3 2|------------ 3-- 2---- 0|
G|------ 2------------ 2 2|------ 2---- 2-- 2------|
D|---- 4---------- 4------|---- 2-------------- 2--|
A| 5-------------------- 0|------------------------|
E|------------------------|------------------------|
http://classicalguitartablature.blogspot.com/
E|------------------------|------------------------|
B|------------ 0-------- 2|------------ 2-------- 3|
G| 0---- 0------------ 0--| 2---- 2------------ 2--|
D|---- 0---------- 0------|---- 2-------- 2------ 5|
A|------------------------|------------------------|
E| 3----------------------| 3----------------------|
http://classicalguitartablature.blogspot.com/
E|------------------------|------ 2------ 3--------|
B|------------ 3-------- 3|-------- 3---- 3--------|
G| 4---- 4------------ 4 0|------------------------|
D|---- 5-------- 5--------|---- 4------ 4------ 4--|
A|---------------------- 0|------------------------|
E| 3----------------------|------------------------|
http://classicalguitartablature.blogspot.com/
E| 5---------- 5----------|-------------- 5--------|
B| 7------------------ 7 7|------------ 7----------|
G| 6------ 6------------ 6|------ 6----------------|
D|---- 7---------- 7------|---- 7-------------- 7--|
A| 5----------------------| 5----------------------|
E|------------------------|------------------------|
http://classicalguitartablature.blogspot.com/
E|------------------------|---------------------- 5|
B|10----------10------1210|------------10-------- 3|
G| 9---- 9-------------- 9|------ 9------------ 9 4|
D|----11--------11--------|----11--------11--------|
A| 9-------------------- 9|------------------------|
E|------------------------|---------------------- 3|
http://classicalguitartablature.blogspot.com/
E|------ 3------------ 2--| 0-------------- 2-- 3--|
B|-------- 3------ 3------| 3---------- 3----------|
G|---- 4------ 4----------| 4---- 4----------------|
D|------------------------|---- 4------------------|
A|------------------------|------------------------|
E|------------------------| 3----------------------|
http://classicalguitartablature.blogspot.com/
E| 5---- 3---------- 2-- 0|------------------------|
B| 3------ 3---- 3------ 3|------------ 3------ 3--|
G| 3-- 3------ 3-------- 3|------ 3----------------|
D|------------------------|---- 2-------- 2--------|
A| 3-------------------- 3|------------------------|
E|------------------------|------------------------|
http://classicalguitartablature.blogspot.com/
E| 5---------- 5----------|-------------- 5--------|
B| 7------------------ 7 7|------------ 7----------|
G| 6------ 6------------ 6|------ 6----------------|
D|---- 7---------- 7------|---- 7-------------- 7--|
A| 5----------------------| 5----------------------|
E|------------------------|------------------------|
http://classicalguitartablature.blogspot.com/
E|------------------------|---------------------- 5|
B|10----------10------1210|------------10-------- 3|
G| 9---- 9-------------- 9|------ 9------------ 9 4|
D|----11--------11--------|----11--------11--------|
A| 9-------------------- 9|------------------------|
E|------------------------|---------------------- 3|
http://classicalguitartablature.blogspot.com/
E|------ 3------------ 2--| 0-------------- 2-- 3--|
B|-------- 3------ 3------| 3---------- 3----------|
G|---- 4------ 4----------| 4---- 4----------------|
D|------------------------|---- 4------------------|
A|------------------------|------------------------|
E|------------------------| 3----------------------|
http://classicalguitartablature.blogspot.com/
E| 5---- 3---------- 2-- 0|------------------------|
B| 3------ 3---- 3------ 3|------------ 3 3---- 2--|
G| 3-- 3------ 3-------- 3|------ 3------ 3---- 3--|
D|------------------------|---- 2-------- 2---- 2--|
A| 3-------------------- 3|------------------------|
E|------------------------|------------------------|
http://classicalguitartablature.blogspot.com/
E|------ 0------------ 2--|------------------------|
B| 3---- 3------------ 3--| 3-------------- 3------|
G| 2-------------- 2------| 2-- 2------ 2------ 2--|
D|---- 4------ 4----------|-------- 4--------------|
A| 5----------------------|------------------------|
E|------------------------|------------------------|
http://classicalguitartablature.blogspot.com/
E|------------------------|------------------------|
B|-------- 5---------- 2 3|------------ 3----------|
G| 2-------------- 2---- 0|------ 0------------ 0--|
D| 2-- 2------ 2----------|---- 0---------- 0------|
A| 4----------------------| 2----------------------|
E|------------------------|------------------------|
http://classicalguitartablature.blogspot.com/
E|------------------------|------------------------|
B| 3------ 3---- 3--------| 3------ 1--------------|
G| 2------ 2---- 2--------| 3------------ 3--------|
D|---- 4------ 4------ 4--|---- 2------------------|
A| 2----------------------| 3-------------------- 5|
E|------------------------|------------------------|
http://classicalguitartablature.blogspot.com/
E|------------------------|------------------------|
B|------------------------|------------------------|
G| 2----------------------|------------------------|
D| 4----------------------|------------------------|
A|------------------------|------------------------|
E|------------------------|------------------------|
http://classicalguitartablature.blogspot.com/

0 ความคิดเห็น:

แสดงความคิดเห็น