To celebrate the anniversary, I am giving you (finally...) : iPhone LickByNeck !!!!!!

The Pink Panther Theme

Popular movie theme fingerstyle chord melody guitar arrangement played in the key of Em.

The Pink Panther Theme played in the key of Em.
http://classicalguitartablature.blogspot.com/
E|--------------------------------|--------------------------------|
B|--------------------------------|--------------------------------|
G|--------------------------------|--------------------------------|
D|--------------------------------|--------------------------------|
A|---------------------- 5---- 6 7|--------------------------------|
E|-------------------- 7----------|---------------- 7--------------|
http://classicalguitartablature.blogspot.com/
E|--------------------------------|--------------------------------|
B|--------------------------------|--------------------------------|
G|--------------------------------|--------------------------------|
D|--------------------------------|--------------------------------|
A|-------------------- 7 6---- 5 3|--------------------------------|
E| 0------------------------------|-------------- 3----------------|
http://classicalguitartablature.blogspot.com/
E|--------------------------------|-------------- 3----------------|
B|------------------------------ 5|------------ 7 3------------ 7--|
G|---------------------- 7---- 8 7|------------ 5 4---- 4------ 4--|
D|-------------------- 9----------|---- 5------ 7-------------- 5--|
A| 3------------------------------|------ 6-------- 5------ 4------|
E|------------------------------ 0|--------------------------------|
http://classicalguitartablature.blogspot.com/
E|------------ 8-- 7------ 3-- 7 6|--------------------------------|
B| 5-- 7-- 8------ 5-- 5-- 4-- 8 5|------------------10 8 5---- 5--|
G| 7------ 7------ 5-- 5 4---- 7--| 5---------------- 9------ 7 5--|
D| 5------ 6---------- 4----------|---- 8------ 8---- 8-- 5---- 4--|
A|---------------------------- 8--| 7------ 5----------------------|
E| 7------ 6------ 4------ 3------|-------------- 8------ 6--------|
http://classicalguitartablature.blogspot.com/
E|--------------------------------| 0---------- 2-- 3--------------|
B|---------------------------- 4--| 0---------- 4-- 5---------- 7 5|
G|------------ 3------ 2------ 2--| 0---------- 2-- 4---------- 5 7|
D|---- 4------ 3------ 1------ 1--|---- 0-------------- 5------ 7 5|
A|--------------------------------|--------------------------------|
E| 5------ 3------ 2---- 1--------| 0------ 2------ 3------ 5---- 7|
http://classicalguitartablature.blogspot.com/
E|------------ 8--------------12--|11------------------------------|
B|---- 7 8------12--------12------|10------------------------------|
G|---- 7 8------12----12--12------| 8---------- 8-- 5---------- 5 7|
D|---- 5 7------12----12--12------|----10------ 8------ 3------ 5--|
A|--------------------------------| 8------10----------------------|
E|------ 8------10--------12------|---------------- 5------ 6---- 7|
http://classicalguitartablature.blogspot.com/
E|--------------------------------|-------------- 3----------------|
B|---------------------------- 4 5|------------ 7 3------------ 7--|
G|------------ 8 4------------ 5 7|------------ 5 4---- 4------ 4--|
D|---- 6------ 8------ 6------ 4--|---- 5------ 7-------------- 5--|
A|-------------- 5------ 6--------|------ 6-------- 5------ 4------|
E|------ 8---------------------- 0|--------------------------------|
http://classicalguitartablature.blogspot.com/
E|------------ 8-- 7------ 3-- 7 6|--------------------------------|
B| 5-- 7-- 8------ 5-- 5-- 4-- 8 5|------------------10 8 5---- 5--|
G| 7------ 7------ 5-- 5 4---- 7--| 5---------------- 9------ 7 5--|
D| 5------ 6---------- 4----------|---- 8------ 8---- 8-- 5---- 4--|
A|---------------------------- 8--| 7------ 5----------------------|
E| 7------ 6------ 4------ 3------|---------------- 8---- 6--------|
http://classicalguitartablature.blogspot.com/
E|--------------------------------|------12-------------- 3------ 6|
B|---------------------------- 4--| 5----13----1512----10 5---- 5 5|
G|------------ 3------ 2------ 2--| 7----14------ 9---- 9 4---- 4 6|
D|---- 4------ 3------ 1------ 1--| 5------------10----10------ 5--|
A|--------------------------------|-------------- 9----------------|
E| 5------ 3------ 2---- 1--------| 0----13-------------- 3--------|
http://classicalguitartablature.blogspot.com/
E|-- 5-- 6------------------------|--------------------------------|
B|------ 8--10--11--10----1110----| 8 5-- 5---- 5------------------|
G|------ 6-- 7-- 9-- 9----1111----|---- 7 2---- 4-------------- 5--|
D|---------- 9-- 8-- 8----1010-- 5|------ 4---- 5------ 5------ 4--|
A|--------------------------------|--------------------------------|
E| 5---- 6-- 7---- 8 9----1011-- 0|------ 2-------- 3---- 5------ 7|
http://classicalguitartablature.blogspot.com/
E|------------------------------ 3| 0---- 0------------------------|
B|------------------------------ 1|---- 3 1---- 5------------------|
G|---- 7 8---- 8 9------------11 0|------ 2---- 3-------------- 5 5|
D|---- 5------ 7------ 910----10--|------------ 5------ 5------ 4--|
A|--------------------------------|--------------------------------|
E|-------- 8----10------11------ 0|-------- 2---- 3------ 5------ 6|
http://classicalguitartablature.blogspot.com/
E|--------------------------------|--------------------------------|
B|--------------------------------| 8 5-- 5---- 5------------------|
G|------ 9--------10----------11--|---- 7 2---- 4-------------- 5--|
D|---- 5------ 8------ 8--10--10 5|------ 4---- 5------ 5------ 4--|
A|--------------------------------|--------------------------------|
E|------ 8--------10------11---- 0|------ 2-------- 3---- 5------ 7|
http://classicalguitartablature.blogspot.com/
E|--------------------------------|-------------- 3----------------|
B|---------------------------- 4 5|------------ 7 3------------ 7--|
G|---- 7 8---- 8 9------------ 5 7|------------ 5 4---- 4------ 4--|
D|---- 5------ 7------ 9------ 4--|---- 5------ 7-------------- 5--|
A|---------------------- 6--------|------ 6-------- 5------ 4------|
E|-------- 8----10-------------- 0|--------------------------------|
http://classicalguitartablature.blogspot.com/
E|------------ 8-- 7------ 3-- 7 6|--------------------------------|
B| 5-- 7-- 8------ 5-- 5-- 4-- 8 5|------------------10 8 5---- 5--|
G| 7------ 7------ 5-- 5 4---- 7--| 5---------------- 9------ 7 5--|
D| 5------ 6---------- 4----------|---- 8------ 8---- 8-- 5---- 4--|
A|---------------------------- 8--| 7------ 5----------------------|
E| 7------ 6------ 4------ 3------|-------------- 8------ 6--------|
http://classicalguitartablature.blogspot.com/
E|--------------------------------| 0---------- 2-- 3--------------|
B|---------------------------- 4--| 0---------- 4-- 5---------- 7 5|
G|------------ 3------ 2------ 2--| 0---------- 2-- 4---------- 5 7|
D|---- 4------ 3------ 1------ 1--|---- 0-------------- 5------ 7 5|
A|--------------------------------|--------------------------------|
E| 5------ 3------ 2---- 1--------| 0------ 2------ 3------ 5---- 7|
http://classicalguitartablature.blogspot.com/
E|------------ 8--------------12--|11------------------------------|
B|---- 7 8------12--------12------|10------------------------------|
G|---- 7 8------12----12--12------| 8---------- 8-- 5---------- 5 7|
D|---- 5 7------12----12--12------|----10------ 8------ 3------ 5--|
A|--------------------------------| 8------10----------------------|
E|------ 8------10--------12------|---------------- 5------ 6---- 7|
http://classicalguitartablature.blogspot.com/
E|--------------------------------|-------------- 3----------------|
B|---------------------------- 4 5|------------ 7 3------------ 7--|
G|------------ 8 4------------ 5 7|------------ 5 4---- 4------ 4--|
D|---- 6------ 8------ 6------ 4--|---- 5------ 7-------------- 5--|
A|-------------- 5------ 6--------|------ 6-------- 5------ 4------|
E|------ 8---------------------- 0|--------------------------------|
http://classicalguitartablature.blogspot.com/
E|------------ 8-- 7------ 3-- 7 6|--------------------------------|
B| 5-- 7-- 8------ 5-- 5-- 4-- 8 5|------------------10 8 5---- 5--|
G| 7------ 7------ 5-- 5 4---- 7--| 5---------------- 9------ 7 5--|
D| 5------ 6---------- 4----------|---- 8------ 8---- 8-- 5---- 4--|
A|---------------------------- 8--| 7------ 5----------------------|
E| 7------ 6------ 4------ 3------|---------------- 8---- 6--------|
http://classicalguitartablature.blogspot.com/
E|--------------------------------|------12-------------- 3------ 6|
B|---------------------------- 4--| 5----13----1512----10 5---- 5 5|
G|------------ 3------ 2------ 2--| 7----14------ 9---- 9 4---- 4 6|
D|---- 4------ 3------ 1------ 1--| 5------------10----10------ 5--|
A|--------------------------------|-------------- 9----------------|
E| 5------ 3------ 2---- 1--------| 0----13-------------- 3--------|
http://classicalguitartablature.blogspot.com/
E|-- 5-- 6------------------------|--------------------------------|
B|------ 8--10--11--10----1110----| 8 5-- 5---- 5------------------|
G|------ 6-- 7-- 9-- 9----1111----|---- 7 2---- 4-------------- 5--|
D|---------- 9---- 8 8----1010-- 5|------ 4---- 5------ 5------ 4--|
A|--------------------------------|--------------------------------|
E| 5---- 6-- 7---- 8 9----1011-- 0|------ 2-------- 3---- 5------ 7|
http://classicalguitartablature.blogspot.com/
E|------------------------------ 3| 0---- 0------------------------|
B|------------------------------ 1|---- 3 1---- 5------------------|
G|---- 7 8---- 8 9------------11 0|------ 2---- 3-------------- 5 5|
D|---- 5------ 7------ 910----10--|------------ 5------ 5------ 4--|
A|--------------------------------|--------------------------------|
E|-------- 8----10------11------ 0|-------- 2---- 3------ 5------ 6|
http://classicalguitartablature.blogspot.com/
E|--------------------------------|--------------------------------|
B|--------------------------------| 8 5-- 5---- 5------------------|
G|------ 9--------10----------11--|---- 7 2---- 4-------------- 5--|
D|---- 5------ 8------ 8--10--10 5|------ 4---- 5------ 5------ 4--|
A|--------------------------------|--------------------------------|
E|------ 8--------10------11---- 0|------ 2-------- 3---- 5------ 7|
http://classicalguitartablature.blogspot.com/
E|--------------------------------|--------------------------------|
B|------------------------ 7------|--------------------------------|
G|---- 7 8---- 8-- 9--11-- 8------|--------------------------------|
D|---- 5------ 7-- 9--10 5--------|--------------------------------|
A|--------------------------------|--------------------------------|
E|-------- 8------10--11 0--------|--------------------------------|
http://classicalguitartablature.blogspot.com/

0 ความคิดเห็น:

แสดงความคิดเห็น