To celebrate the anniversary, I am giving you (finally...) : iPhone LickByNeck !!!!!!

Promise Me-Beverly Craven

Beverly Craven's hit fingerstyle solo guitar arrangement played in the key of Cm.

Promise Me played in the key of Cm.
http://classicalguitartablature.blogspot.com/
E|--------------------------------|--------------------------------|
B| 4---- 4---- 4 3---- 3---- 3-- 1|---- 1---- 1-- 3---- 3---- 3-- 4|
G| 5-- 5---- 5------ 3---- 3------|-- 1---- 1-------- 3---- 3---- 5|
D|-- 5---- 5---- 5 3---- 3---- 3--|-- 1-- 1---- 1---- 3-- 3---- 3--|
A| 3------------ 3-------------- 3|-------------- 3----------------|
E|--------------------------------|--------------------------------|
http://classicalguitartablature.blogspot.com/
E|--------------------------------|--------------------------------|
B|---- 4---- 4-- 3---- 3---- 3-- 1|---- 1---- 1-- 3----------------|
G|-- 5------ 5------ 3---- 3------|-- 1---- 1---- 3----------------|
D|-- 5-- 5------ 5 3---- 3---- 3--|-- 1-- 1---- 1-- 3--------------|
A| 3------------ 3-------------- 3|---------------- 3--------------|
E|--------------------------------|--------------------------------|
http://classicalguitartablature.blogspot.com/
E|--------------------------------|--------------------------------|
B|---- 4 4 4 4---- 4 3-- 3 3-- 1--|------ 3 3 4-- 1-------------- 3|
G|---- 3 3 3 4---- 3 3-- 3 3-- 3 3|---- 3-- 5 5 7-- 1---------- 5 3|
D|-- 5---- 5 3-- 3 3 3-- 3 5 5 1--|-- 3---- 3 3 5-- 1 1-- 1-- 1 6 3|
A| 3------ 6-- 4-- 3-- 5-- 6------|---------------------------- 6 5|
E|---------------------------- 1--| 3------ 4-- 6-- 4-- 3-- 1------|
http://classicalguitartablature.blogspot.com/
E|------------------------------ 8|-- 6----------------------------|
B|-- 4 4 4-- 4---- 6---- 3------ 3|-- 6-- 8-- 6-- 8----------------|
G|-- 3 1 5-- 5 8-- 7-- 8 5-- 5 3--| 3 5-- 7-- 7---- 8---- 8-- 5 8--|
D|-- 1 3 5-- 5 6-- 8-- 6 5-- 5 3--|------ 5-- 6-- 6-- 6-- 3-- 5 6--|
A|---- 2--------------------------|---------------------- 5-- 6-- 8|
E|------ 6-- 5-- 7 8-- 7-- 6 5 4--| 3-- 4-- 6-- 7-- 8--------------|
http://classicalguitartablature.blogspot.com/
E|---- 811-- 8---- 6 4------------| 6-- 4-- 3----------------------|
B|--11--11-- 8---- 6 6---- 8 6----| 3-- 6 4---- 6-- 4---------- 1 3|
G|-- 8--10-- 7 7-- 7 4---- 5 7-- 8| 3-- 5 5---- 7-- 1---- 1---- 1 3|
D|-- 8-------------------- 8 6-- 7|-- 3-- 6-- 5-- 5-- 5------ 5 1 3|
A|--------11-------- 5---- 6 8-- 9|---------------- 3------ 1------|
E|---------- 6---- 8--------------| 3-- 4-- 5-- 6-------------- 4 3|
http://classicalguitartablature.blogspot.com/
E|------------ 3------------------|--------------------------------|
B| 4 4-- 4 6------ 8-- 6 4------ 1|---- 1------ 1 3------ 4--------|
G| 5 5-- 4-- 5-- 5 5-- 5 5---- 5--| 3-- 3-- 3---- 3-- 3-- 3-- 3 0--|
D| 6 6-- 6---------- 6-- 6-- 3-- 3|-- 1---- 1---- 1-- 3---- 5-- 1--|
A| 8---- 7 6------ 5------ 4------| 3-------------- 5---- 6--------|
E|--------------------------------|---------------------------- 3--|
http://classicalguitartablature.blogspot.com/
E|------------------ 3------------|--------------------------------|
B|------ 1---- 1------ 3------ 3--|---- 4 4 4 4---- 4 3-- 3 3-- 1--|
G| 1-- 1---- 1---- 5------ 5------|---- 3 3 3 4---- 3 3-- 3 3-- 3 3|
D| 1 1---- 1---- 1-- 3------ 3----|-- 5---- 5 3-- 3 3 3-- 3 5 5 1--|
A|--------------------------------| 3------ 6-- 4-- 3-- 5-- 6------|
E| 4-------------- 3--------------|---------------------------- 1--|
http://classicalguitartablature.blogspot.com/
E|--------------------------------|------------------------------ 8|
B|------ 3 3 4-- 1-------------- 3|-- 4 4 4-- 4---- 6---- 3------ 3|
G|---- 3-- 5 5 7-- 1---------- 5 3|-- 3 1 5-- 5 8-- 7-- 8 5-- 5 3--|
D|-- 3---- 3 3 5-- 1 1-- 1-- 1 6 3|-- 1 3 5-- 5 6-- 8-- 6 5-- 5 3--|
A|---------------------------- 6 5|---- 2--------------------------|
E| 3------ 4-- 6-- 4-- 3-- 1------|------ 6-- 5-- 7 8-- 7-- 6 5 4--|
http://classicalguitartablature.blogspot.com/
E|-- 6----------------------------|--------------------------------|
B|-- 6-- 8-- 6-- 8----------------|-- 8 9-- 8-- 6-- 6 4---- 3 1----|
G| 3 5-- 7-- 7-- 8-------- 1-- 5--|-- 7 710 5-- 7-- 4 5---- 0 3----|
D|------ 5-- 6-- 6-------- 1-- 5--|-- 5-- 9-- 5-- 9 3 5-- 5 3 1----|
A|------------------ 5 6----------|-------- 6-- 8---------- 2 3 5 6|
E| 3-- 4-- 6-- 7 8-------- 1 3 4--| 7-- 810-------- 3-- 5----------|
http://classicalguitartablature.blogspot.com/
E|---- 8 9-------- 6 4------------|---------- 8 6------ 1----------|
B|---- 8--13--11-- 6 6-- 6 8 6----|------ 9-- 9 6-- 9-- 2-- 2---- 1|
G|-- 5 6--10--10-- 5-- 5-- 5 8----|----10--1010-- 6 6-- 1-- 3---- 1|
D|-- 8------11--11-------- 5 6-- 6|--10----10-------- 8---- 1------|
A| 7-- 8--10----------------------|-------------- 6-- 7------------|
E|---------------- 4------ 6-- 8--| 9------10---------- 1-- 3---- 4|
http://classicalguitartablature.blogspot.com/
E|------------------------ 6------|---------- 6-- 8-- 6-- 4--------|
B|-- 4 4---- 4 1 8--11-- 7---- 4--| 6-- 8 9---- 6 7-- 6-- 4-- 6-- 4|
G|-- 1 1-- 1-- 1 8-- 8---- 6-- 5--| 6-- 8 8-- 6-- 5-- 6-- 3---- 4 5|
D| 1---- 1---- 2---- 810---- 6 4 4|-- 6-- 8-- 7-- 6-- 7 6-- 2-- 3 3|
A|--------------10---- 8-- 6-- 5--|--------------------------------|
E|-------------- 2----------------| 9-- 8 7---- 6-- 5-- 4 2---- 3 4|
http://classicalguitartablature.blogspot.com/
E|----------13--11-- 9-- 8--------|------------ 8-- 6--------------|
B|------------11 8--11-- 6----11 9|---------- 6 8-- 9------------ 1|
G|---- 5----10-- 8----10 6 6-- 8--|10-------- 6-- 6 6-- 6-- 8---- 1|
D|-- 5-------------- 8------ 610--|--10--10-- 6------ 6------11----|
A|-------- 9----10----11----------|-------- 6-- 7-- 8------ 9--10--|
E|---------------------- 6---- 8--| 910-------------------------- 4|
http://classicalguitartablature.blogspot.com/
E|------------------------ 6------|---------- 6-- 8-- 9-- 8-- 6----|
B|-- 4 4---- 4 1 8--11-- 7---- 4--| 6-- 8 9---- 6 6--11-- 8-- 8-- 9|
G|-- 1 1-- 1-- 1 8-- 8---- 6-- 5--| 6-- 8 8-- 6-- 6----10 6 6 5 510|
D| 1---- 1---- 2---- 810---- 6 4 4|-- 6-- 8-- 7-- 6-- 6----------10|
A|--------------10---- 8-- 6-- 5--|------------------10-- 8-- 7----|
E|-------------- 2----------------| 9-- 8 7---- 6 4--------------11|
http://classicalguitartablature.blogspot.com/
E|---------------- 8--------------|---- 3 4 8---------- 4-- 8------|
B|---------------- 6--------------|---- 2 4 9-------- 8 4-- 9---- 9|
G|--10 9-- 8 8-- 7 7--------------|-- 3-- 3 8-------- 6 5--10---- 9|
D|--10 8-- 6 6-- 6----------------|--------------10 8----------10--|
A|--------------------------------|------------ 8 7---- 6----------|
E|--10-- 9 8 7-- 6 4--------------| 3---- 2------------------10-- 9|
http://classicalguitartablature.blogspot.com/
E|--------------------------------|--------------------------------|
B|------------ 9---------- 9------|--------------------------------|
G|-------- 9------ 9---- 8--------|--------------------------------|
D|------ 8-------------- 8--------|--------------------------------|
A|--------------------------------|--------------------------------|
E|---------------------- 8--------|--------------------------------|
http://classicalguitartablature.blogspot.com/

0 ความคิดเห็น:

แสดงความคิดเห็น