To celebrate the anniversary, I am giving you (finally...) : iPhone LickByNeck !!!!!!

Rainy Day And Mondays (EASY)

The Carpenters' hit fingerstyle solo guitar easy arrangement played in the key of A.

Rainy Day and Mondays- EASY Arrangement played in the key of A.
http://classicalguitartablature.blogspot.com/
E| 5-- 5---- 7---- 9--------------|------------ 7-- 9--------------|
B| 2-- 2---- 7----10--------------| 710-- 710------ 9--------------|
G| 2-- 2---- 6----11--------------| 7---- 7 7------ 9------ 9------|
D|--------------------11------11--| 7 7-- 7 7---------- 9------ 9--|
A|--------------------------------|--------------------------------|
E| 2------ 0------10---- 9--------| 7------ 0------ 9--------------|
http://classicalguitartablature.blogspot.com/
E|-- 5---- 5-- 5--10------ 9------| 5-------------- 0--------------|
B| 7 7-- 7 7-- 7-- 7------ 9------| 7------ 7------ 0--------------|
G| 6 6-- 6 6-- 6-- 7------ 9------| 6------ 7------ 1------ 1------|
D| 7---- 7------------ 7------ 9--|---- 7-- 7-- 7------ 2------ 2--|
A| 5------------------------------| 5-------------- 0--------------|
E|---------------- 7------ 9------|-------- 0----------------------|
http://classicalguitartablature.blogspot.com/
http://classicalguitartablature.blogspot.com/
E|--------------------------------|---- 0-- 0-- 0------------------|
B|---------------- 7--------------| 2-- 2-- 2-- 2-- 5-- 5-- 3-- 5--|
G| 2-- 2------ 2-- 7--------------| 2---------- 2-- 4-- 4----------|
D| 4------ 4------ 7--------------| 2-------------- 2 2------------|
A|--------------------------------| 0------------------------------|
E|-------------- 0----------------|---------------- 4--------------|
http://classicalguitartablature.blogspot.com/
E|--------------------------------|------------ 2------------------|
B| 2------ 2-------------- 2------| 2 5-- 2 5------ 5--------------|
G| 4---- 4------ 4------ 3---- 3--| 2---- 2 2------ 4------ 4------|
D|---- 2---- 2-------- 2----------|------ 4 4---------- 2------ 2--|
A|--------------------------------| 2-------------- 4--------------|
E| 3-------------- 2--------------|--------------------------------|
http://classicalguitartablature.blogspot.com/
E|--------------------------------| 5-- 5---- 7---- 9--------------|
B|-- 5---- 5-- 7-- 5--------------| 2-- 2---- 7----10--------------|
G| 6---- 6 6-- 6-- 4------ 4------| 2-- 2---- 6----11--------------|
D| 7---- 7---- 7------ 6------ 6--|--------------------11------11--|
A| 5-------------- 4--------------|--------------------------------|
E|--------------------------------| 2------ 0------10---- 9--------|
http://classicalguitartablature.blogspot.com/
E|------------ 7-- 9--------------|-- 5---- 5-- 5--10-- 9----------|
B| 710-- 710------ 9--------------| 7 7-- 7 7-- 7-- 7-- 7--10-- 7--|
G| 7---- 7 7------ 9------ 9------| 6 6-- 6 6-- 6-- 7-- 7-- 7-- 7--|
D| 7 7-- 7 7---------- 9------ 9--| 7---- 7---------------- 7-- 7--|
A|--------------------------------| 5------------------------------|
E| 7------ 0------ 9--------------|---------------- 0--------------|
http://classicalguitartablature.blogspot.com/
E| 0------------------------------|---- 0-- 0-- 0------------------|
B| 3------------------------------| 2-- 2-- 2-- 2-- 5-- 5-- 3-- 5--|
G| 2------ 2------ 1------ 1------| 2---------- 2-- 4-- 4----------|
D|---- 0-- 0-- 0-- 0-- 0------ 0--| 2-------------- 2 2------------|
A|--------------------------------| 0------------------------------|
E| 0------------------------------|---------------- 4--------------|
http://classicalguitartablature.blogspot.com/
E|--------------------------------|------------ 2------------------|
B| 2------ 2-------------- 2------| 2 5-- 2 5------ 5--------------|
G| 4---- 4------ 4------ 3---- 3--| 2---- 2 2------ 4------ 4------|
D|---- 2---- 2-------- 2----------|------ 4 4---------- 2------ 2--|
A|--------------------------------| 2-------------- 4--------------|
E| 3-------------- 2--------------|--------------------------------|
http://classicalguitartablature.blogspot.com/
E|--------------------------------| 5-- 5---- 7---- 9--------------|
B|-- 5---- 5-- 7-- 5--------------| 2-- 2---- 7----10--------------|
G| 6---- 6 6-- 6-- 4------ 4------| 2-- 2---- 6----11--------------|
D| 7---- 7---- 7------ 6------ 6--|--------------------11------11--|
A| 5-------------- 4--------------|--------------------------------|
E|--------------------------------| 2------ 0------10---- 9--------|
http://classicalguitartablature.blogspot.com/
E|------------ 7-- 9--------------|-- 5---- 5-- 5--10-- 9----------|
B| 710-- 710------ 9--------------| 7 7-- 7 7-- 7-- 7-- 7--10-- 7--|
G| 7---- 7 7------ 9------ 9------| 6 6-- 6 6-- 6-- 7-- 7-- 7-- 7--|
D| 7 7-- 7 7---------- 9------ 9--| 7---- 7---------------- 7-- 7--|
A|--------------------------------| 5------------------------------|
E| 7------ 0------ 9--------------|---------------- 0--------------|
http://classicalguitartablature.blogspot.com/
E| 0------------------------------|---------------- 2--------------|
B| 3------------------------------|12--10---------- 2---------- 2--|
G| 2------ 2------ 1------ 1------| 9-- 9-- 9------ 2-- 2-- 2------|
D|---- 0-- 0-- 0-- 0-- 0------ 0--|1111--------11---- 4------------|
A|--------------------------------| 9-------------- 5--------------|
E| 0------------------------------|--------------------------------|
http://classicalguitartablature.blogspot.com/
E|------------ 2------ 0----------|------------ 4-- 5--------------|
B| 5-- 5-- 5------ 7--------------|---- 5-- 5------ 7-- 7-- 7-- 5--|
G| 2-- 2-- 2------ 6---------- 6--|---- 4-- 4------ 6-- 6-- 6------|
D| 4-- 4-- 4------ 7------ 7------|-- 6-- 6-- 6------ 7-- 7-- 7----|
A| 2-------------- 0--------------| 4-------------- 5--------------|
E|-------- 0----------------------|--------------------------------|
http://classicalguitartablature.blogspot.com/
E| 2------------------------------|---------------- 2--------------|
B| 5-- 5--------------------------|12--10---------- 2---------- 2--|
G| 2-- 2---- 2------------ 2------| 9-- 9-- 9------ 2-- 2-- 2------|
D|---- 4-- 4---- 4---- 4-- 4-- 4--|1111--------11---- 4------------|
A| 2------------------------------| 9-------------- 5--------------|
E|---------------- 0--------------|--------------------------------|
http://classicalguitartablature.blogspot.com/
E|------------ 2------ 0----------|------------ 4-- 5--------------|
B| 5-- 5-- 5------ 7--------------|---- 5-- 5------ 7-- 7-- 7-- 5--|
G| 2-- 2-- 2------ 6---------- 6--|---- 4-- 4------ 6-- 6-- 6------|
D| 4-- 4-- 4------ 7------ 7------|-- 6-- 6-- 6------ 7-- 7-- 7----|
A| 2-------------- 0--------------| 4-------------- 5--------------|
E|-------- 0----------------------|--------------------------------|
http://classicalguitartablature.blogspot.com/
E| 2------------------------------|---- 0-- 0-- 0------------------|
B| 5-- 5--------------------------| 2-- 2-- 2-- 2-- 5-- 5-- 3-- 5--|
G| 2-- 2---- 2------------ 2------| 2---------- 2-- 4-- 4----------|
D|---- 4-- 4---- 4---- 4-- 4-- 4--| 2-------------- 2 2------------|
A| 2------------------------------| 0------------------------------|
E|---------------- 0--------------|---------------- 4--------------|
http://classicalguitartablature.blogspot.com/
E|--------------------------------|------------ 2------------------|
B| 2------ 2-------------- 2------| 2 5-- 2 5------ 5--------------|
G| 4---- 4------ 4------ 3---- 3--| 2---- 2 2------ 4------ 4------|
D|---- 2---- 2-------- 2----------|------ 4 4---------- 2------ 2--|
A|--------------------------------| 2-------------- 4--------------|
E| 3-------------- 2--------------|--------------------------------|
http://classicalguitartablature.blogspot.com/
E|--------------------------------| 5-- 5---- 7---- 9--------------|
B|-- 5---- 5-- 7-- 5--------------| 2-- 2---- 7----10--------------|
G| 6---- 6 6-- 6-- 4------ 4------| 2-- 2---- 6----11--------------|
D| 7---- 7---- 7------ 6------ 6--|--------------------11------11--|
A| 5-------------- 4--------------|--------------------------------|
E|--------------------------------| 2------ 0------10---- 9--------|
http://classicalguitartablature.blogspot.com/
E|------------ 7-- 9--------------|-- 5---- 5-- 5--10-- 9----------|
B| 710-- 710------ 9--------------| 7 7-- 7 7-- 7-- 7-- 7--10-- 7--|
G| 7---- 7 7------ 9------ 9------| 6 6-- 6 6-- 6-- 7-- 7-- 7-- 7--|
D| 7 7-- 7 7---------- 9------ 9--| 7---- 7---------------- 7-- 7--|
A|--------------------------------| 5------------------------------|
E| 7------ 0------ 9--------------|---------------- 0--------------|
http://classicalguitartablature.blogspot.com/
E| 0------------------------------| 5-- 5---- 7---- 9--------------|
B| 3------------------------------| 2-- 2---- 7----10--------------|
G| 2------ 2------ 1------ 1------| 2-- 2---- 6----11--------------|
D|---- 0-- 0-- 0-- 0-- 0------ 0--|--------------------11------11--|
A|--------------------------------|--------------------------------|
E| 0------------------------------| 2------ 0------10---- 9--------|
http://classicalguitartablature.blogspot.com/
E|------------ 7-- 9--------------|-- 5---- 5-- 5--10------ 9------|
B| 710-- 710------ 9--------------| 7 7-- 7 7-- 7-- 7------ 9------|
G| 7---- 7 7------ 9------ 9------| 6 6-- 6 6-- 6-- 7------ 9------|
D| 7 7-- 7 7---------- 9------ 9--| 7---- 7------------ 7------ 9--|
A|--------------------------------| 5------------------------------|
E| 7------ 0------ 9--------------|---------------- 7------ 9------|
http://classicalguitartablature.blogspot.com/
E| 5-------------- 0--------------|--------------------------------|
B| 7------ 7------ 0--------------|--------------------------------|
G| 6------ 7------ 1------ 1------| 2-- 2------ 2-- 1------ 1---- 2|
D|---- 7-- 7-- 7------ 2------ 2--| 4------ 4---------- 2------ 2--|
A| 5-------------- 0--------------|---------------- 0--------------|
E|-------- 0----------------------|--------------------------------|
http://classicalguitartablature.blogspot.com/
E|--------------------------------|--------------------------------|
B|---------------- 0--------------|--------------------------------|
G|---- 2------ 2-- 1--------------|--------------------------------|
D| 4------ 4------ 2--------------|--------------------------------|
A|-------------- 0----------------|--------------------------------|
E|--------------------------------|--------------------------------|
http://classicalguitartablature.blogspot.com/

0 ความคิดเห็น:

แสดงความคิดเห็น