To celebrate the anniversary, I am giving you (finally...) : iPhone LickByNeck !!!!!!

Saving All My Love For You (BASIC)

Whitney Houston's classic tune fingerstyle chord melody guitar BASIC arrangement played in the key of G.
You need to install the Flash plugin - http://www.webestools.com/

Saving All My Love For You - BASIC ARRANGEMENT played in the key of G
http://classicalguitartablature.blogspot.com/
E|--------------------------------|--------------------------------|
B|-------- 3---------- 8------ 8 5|-------- 5-------------- 8------|
G|-------- 4---------- 7------ 7--| 5------ 5---------- 5------ 5--|
D|---- 4-------------- 5---- 6----|---- 5------------ 5------ 5----|
A|---------- 5 6-- 7--------------|---------- 7 6-- 5--------------|
E| 3---------------------- 6------| 5------------------------------|
http://classicalguitartablature.blogspot.com/
E| 2------------------ 0----------|---------------------------- 3 2|
B| 3-------- 3---- 3-------- 0 0--| 0------ 0---------------- 0-- 3|
G| 4------ 4-- 4-- 0--------------| 0-------- 0---- 0---- 0--------|
D|------ 4---------- 0---- 0------|---- 2------ 2------ 4----------|
A|--------------------------------| 0------------ 5----------------|
E| 3-------------- 0--------------|--------------------------------|
http://classicalguitartablature.blogspot.com/
E|-------------------- 0----------|--------------------------------|
B|---------- 3---- 3-------- 0 0--| 0---- 0---------------------- 0|
G| 4---- 4---- 4-- 0--------------| 0-------- 0-- 0------ 0-- 0 2 0|
D|---- 4------------ 0-- 0--------|---- 2------ 2------ 4----------|
A|--------------------------------| 0------------ 5----------------|
E| 3-------------- 0--------------|--------------------------------|
http://classicalguitartablature.blogspot.com/
E|---- 0--------------------------|---------- 0--------------------|
B|---------- 0--------------------|------ 3------------------------|
G|---------------- 2------ 2 0 2--| 4---------- 4-- 2-------- 0 2--|
D|-- 0-- 0---- 0-- 4-- 4----------| 5-- 5---------- 5------ 5------|
A|---------------- 6--------------| 5-------------- 4--------------|
E| 0------------------------------|--------------------------------|
http://classicalguitartablature.blogspot.com/
E|------ 0---- 3-- 7-------- 7----| 7------------------------------|
B| 0-- 3 3---- 3-- 8------ 8 8 8--| 8 810------------------ 8--10--|
G| 0---- 2-------- 7-- 7-- 7-- 7--| 9 9 9------ 9------ 8--10--10--|
D|-- 0------ 0------ 9---- 9-- 9--|---------- 8------ 7---- 9 9----|
A|--------------------------------| 9------------------------------|
E| 3------ 2------ 0------10------|-------- 8------ 7------ 9------|
http://classicalguitartablature.blogspot.com/
E| 7-- 7---------------------- 3--|--------------------------------|
B| 8-- 8--10--10-- 8------ 5-- 3--|------ 3---------------- 3------|
G| 9 9---- 7-- 7-- 5-- 5-- 5-- 2--|---- 2------ 2------ 0---- 0----|
D|-------- 7 7------ 5---- 5------|-- 2------ 2------ 0-------- 0--|
A|------------------------ 5------|--------------------------------|
E| 8------ 7------ 5--------------| 3-------------- 3--------------|
http://classicalguitartablature.blogspot.com/
E|--------------------------------|--------------------------------|
B|---- 0 0---- 0 1---- 0---- 0 0--|---------------------------- 0--|
G|---- 2-- 2-- 2 2---- 2---- 2 2 2|---- 0---- 0-- 0------ 0--------|
D|-- 2------ 2------ 1---- 1---- 2|------ 2---- 2------ 2----------|
A|---------------- 2--------------|--------------------------------|
E| 2------------------------------| 0------------ 0----------------|
http://classicalguitartablature.blogspot.com/
E|-------------- 0----------------|---------------------------- 2--|
B|---- 3 3---- 3 3---- 3 3------ 0|-------- 0-------------- 0------|
G|---- 5 5---- 5 5---- 5 5------ 0|---- 0------ 0------ 0----------|
D|-- 5------ 5---------------- 5--|-- 0------ 0------ 0------ 0----|
A|-------------- 5----------------|--------------------------------|
E| 5---------------------------- 3|---------------- 3--------------|
http://classicalguitartablature.blogspot.com/
E|---------------- 3-- 2----------|------------------------------ 5|
B| 7-- 7-- 7-- 7-- 2-- 2------ 5 4|---- 2 4---- 2 4---- 7-------- 5|
G| 4-- 4-- 4-- 4-- 3-------- 3----| 3-- 3 3---- 3 4---- 4---- 4 4--|
D| 5 5------ 5------ 2---- 2------|-- 4------ 4-- 4-- 4---- 4------|
A| 4------------------------------| 2------------------------------|
E|---------------- 2--------------|-------------- 4----------------|
http://classicalguitartablature.blogspot.com/
E|---- 5------ 5-- 7-- 5----------|10------------------------------|
B|---- 5---- 8---- 5-- 5------ 8--| 8-------------------------- 8--|
G| 5---- 5-------- 5 5------ 5----| 9------ 9------ 9-------- 9----|
D|-- 5-------------------- 5------|--------10------10------10------|
A|--------------------------------|--------------------------------|
E| 5-------------- 5--------------|101010--101010--10--------------|
http://classicalguitartablature.blogspot.com/
E| 2------------------ 0-------- 7|---------- 7---- 7-- 5----------|
B| 3-------- 3-- 3------------ 3--| 8------ 8-- 8-- 5 8-------- 5--|
G| 4---- 4---- 4-- 0-------- 0----| 5-- 5---------- 5-------- 7----|
D|---- 4---------- 0---- 0--------|-- 5----------------------------|
A|--------------------------------|---------------- 5---- 5--------|
E| 3-------------- 0--------------| 5------------------------------|
http://classicalguitartablature.blogspot.com/
E| 7-------- 7-- 7---- 5----------| 7-------- 7-- 7----------------|
B| 8------ 8 8 8-- 8 8-------- 5--| 8---- 8-- 8 8 8-- 810---- 810--|
G| 7-- 7-- 7------ 5------ 5 7----| 7-- 7 7---- 7 9---------- 9 9--|
D|-- 9----------------------------|-- 9----------------------------|
A| 7-------------- 6--------------|--------------------------------|
E|--------------------------------|10------------ 9-------- 9------|
http://classicalguitartablature.blogspot.com/
E| 7---- 7-------- 7-------- 7----| 7------------------------------|
B| 810 8-- 710 8-- 810 8-- 8-- 8--| 8 810------------------ 8--10--|
G| 7 7 7-- 7 7 7-- 7 7 7-- 7------| 9 9 9------ 9------ 8--10--10--|
D|---------- 7 7---- 9 9-- 9------|---------- 8------ 7---- 9 9----|
A|10------ 9------ 7--------------| 9------------------------------|
E|------------------------10------|-------- 8------ 7------ 9------|
http://classicalguitartablature.blogspot.com/
E| 7-- 7--------------------------| 7-- 7--------------------------|
B| 8-- 8--10--10-- 8-------- 3 5--| 8-- 8--10--10-- 8-------- 3 5--|
G| 9 9---- 7-- 7-- 5-- 5---- 5 5--| 9 9---- 7-- 7-- 5-- 5---- 5 5--|
D|-------- 7 7------ 5------ 3 3--|-------- 7 7------ 5------ 3 3--|
A|------------------------ 5------|------------------------ 5------|
E| 8------ 7------ 5--------------| 8------ 7------ 5--------------|
http://classicalguitartablature.blogspot.com/
E| 7-- 7----------------------10--|--------------------------------|
B| 8-- 8--10--10-- 8------ 5--10--|--------10----------------------|
G| 9 9---- 7-- 7-- 5-- 5-- 5-- 9--|---- 9-------------- 7------ 7--|
D|-------- 7 7------ 5---- 5------|-- 9-------------- 9------ 6----|
A|------------------------ 5------|10-------- 9 8-- 7--------------|
E| 8------ 7------ 5--------------|------------------------ 6------|
http://classicalguitartablature.blogspot.com/
E|--------------------------------|10------------------------------|
B|-------- 5-------------- 8------|10------10----------------------|
G|---- 5-------------- 5------ 5--| 9---- 9------------ 7------ 7--|
D|-- 5-------------- 7------ 7----|-- 9-------------- 9------ 6----|
A|---------- 7 6-- 5--------------|10-------- 9 8-- 7--------------|
E| 5------------------------------|------------------------ 6------|
http://classicalguitartablature.blogspot.com/
E|--------------------------------|---------------- 3--------------|
B|-------- 5------------------ 8--|------------------------ 3------|
G|------ 5---------------- 5------|-------------- 2---- 2---- 2----|
D|-- 5---------------- 5----------|------------------ 2-------- 2--|
A|------------ 7 6-- 5------------|--------------------------------|
E| 5------------------------------|-------------- 3----------------|
http://classicalguitartablature.blogspot.com/
E|--------------------------------|--------------------------------|
B|--------------------------------|--------------------------------|
G| 2------------------------------|--------------------------------|
D|--------------------------------|--------------------------------|
A|--------------------------------|--------------------------------|
E|--------------------------------|--------------------------------|
http://classicalguitartablature.blogspot.com/

0 ความคิดเห็น:

แสดงความคิดเห็น