To celebrate the anniversary, I am giving you (finally...) : iPhone LickByNeck !!!!!!

Scarborough Fair

Classic Simon And Garfunkel's hit fingerstyle solo guitar arrangement played in the key of Em.

2 arranegements of Scarborough Fair (easy follows by intermediate) played in the key of Em.
http://classicalguitartablature.blogspot.com/
E|---- 7------------------|---- 7------------------|
B|----------------10------|---------------- 7------|
G| 9------ 7-------- 7----| 9------ 9---------- 9 9|
D|------------11----------|------------ 9----------|
A|------------------------|------------------------|
E| 0----------------------| 0----------------------|
http://classicalguitartablature.blogspot.com/
E|---- 7------------------|---- 7------------------|
B|--------------10--------|---------------- 7------|
G|-------- 7---------- 7--| 9------ 9---------- 9 9|
D|------------11----------|------------ 9----------|
A|------------------------|------------------------|
E| 0----------------------| 0----------------------|
http://classicalguitartablature.blogspot.com/
E|---- 7------------------|---- 7------------------|
B|--------------10--------|---------------- 7------|
G|-------- 7---------- 7--| 9------ 9---------- 9 9|
D|------------11----------|------------ 9----------|
A|------------------------|------------------------|
E| 0----------------------| 0----------------------|
http://classicalguitartablature.blogspot.com/
E|---- 7------------------|---- 7------------------|
B|--------------10--------|---------------- 7------|
G|-------- 7---------- 7--| 9------ 9---------- 9--|
D|------------11----------|------------ 9----------|
A|------------------------|------------------------|
E| 0----------------------| 0----------------------|
http://classicalguitartablature.blogspot.com/
E| 0------------ 0------ 7|------ 7------ 7------ 2|
B| 0------ 0---- 0--------| 0---- 0------ 0------ 3|
G|---- 0---- 0-------- 0--|-- 0------ 0------------|
D|------------------------|---------------------- 0|
A|------------------------|------------------------|
E| 0----------------------| 0----------------------|
http://classicalguitartablature.blogspot.com/
E|------ 3------ 2--------|---- 7------------------|
B|------ 3------ 3--------|--------------10--------|
G|-- 2------ 2------ 2-- 9|-------- 7---------- 7--|
D|------------------------|------------11----------|
A|------------------------|------------------------|
E|------------------------| 0----------------------|
http://classicalguitartablature.blogspot.com/
E|-- 7--------------------|------ 7------10--------|
B|------------------------|---------- 8---- 7------|
G| 9---- 9------ 7--------|---- 7---------- 7------|
D| 9---------- 9------ 7--|---- 9-------------- 7--|
A|---------------- 9------|10-------------- 9------|
E| 0----------------------|------------------------|
http://classicalguitartablature.blogspot.com/
E|12--------12--10------ 7|-------- 9------------ 7|
B| 0---- 0------ 0------ 8|--------10----10--------|
G|---- 0------------ 0-- 7|-------- 9-------- 9----|
D|------------------------|---- 9------11----------|
A|----------------------10|--------12--------------|
E| 0------------ 0--------|---------------------- 0|
http://classicalguitartablature.blogspot.com/
E|---- 7------------------|---- 7------------------|
B|--------------10--------|---------------- 7------|
G| 9---- 7------------ 7--| 9------ 9---------- 9 9|
D|------------11----------|------------ 9----------|
A|------------------------|------------------------|
E|------------------------| 0----------------------|
http://classicalguitartablature.blogspot.com/
E|---- 7------------------|--------------12------12|
B|--------------10--------|----12------------12--12|
G|-------- 7---------- 7--| 9------ 9------------ 9|
D|------------11----------|------------ 9----------|
A|------------------------|------------------------|
E| 0----------------------| 0-------------------- 0|
http://classicalguitartablature.blogspot.com/
E|--------------12------10|----------10-- 7------ 7|
B|----------12------10-- 8|------ 8-------------- 8|
G|------ 9------------11--|-- 7-------------- 7-- 7|
D|-- 9--------------------|------------------------|
A|-------------------- 910|------------------------|
E|---------------- 0------|------------------------|
http://classicalguitartablature.blogspot.com/
E|------------------------| 2-- 0-------- 3-- 2-- 3|
B|------10------ 8--------| 3 3---- 3---- 3-- 3-- 3|
G|-------- 7------ 9------| 2-------- 2------ 2----|
D|---- 9------ 7------ 9--| 0----------------------|
A|10------ 9---- 7--------|------------------------|
E|------------------------|------------------------|
http://classicalguitartablature.blogspot.com/
E|------ 2-------------- 0|---------- 0---- 7------|
B|------ 3------ 3------ 0|------ 0----------------|
G|-- 2------ 2------ 2----|---- 0-------------- 0--|
D| 0----------------------|------------------------|
A|------------------------|------------------------|
E|------------------------| 0----------------------|
http://classicalguitartablature.blogspot.com/
E| 5---------- 5-- 3------| 2---- 0----------------|
B| 3---- 3---------- 3----| 3------------ 3--------|
G|---- 2------------------|---- 2---- 2-------- 2 9|
D| 0----------------------| 0----------------------|
A|------------------------|------------------------|
E|------------------------|------------------------|
http://classicalguitartablature.blogspot.com/
E|---- 7------------------|---- 7------------------|
B|--------------10--------|---------------- 7------|
G|-------- 7---------- 7--| 9------ 9---------- 9 9|
D|------------11----------|------------ 9----------|
A|------------------------|------------------------|
E| 0----------------------| 0----------------------|
http://classicalguitartablature.blogspot.com/
E|---- 7------------------|---- 7------------------|
B|--------------10--------|---------------- 7------|
G|-------- 7---------- 7--| 9------ 9---------- 9--|
D|------------11----------|------------ 9----------|
A|------------------------|------------------------|
E| 0----------------------| 0----------------------|
http://classicalguitartablature.blogspot.com/
E|------------------------| 7------ 7---- 7--------|
B| 5-------------- 5------| 8------ 8---- 8--------|
G| 7---------- 5-- 4------|---- 9------ 9---- 9----|
D|---- 5------ 7------ 5--|------------------------|
A| 7------ 6------ 5------|------------------------|
E|------------------------| 9---- 8-------- 7------|
http://classicalguitartablature.blogspot.com/
E|-------- 3------ 2------|---- 7---------- 5------|
B| 7------ 1------ 3------|---- 8-- 3-- 2-- 5 3----|
G| 7------ 2------ 2------| 9-- 9-- 4------ 4 2----|
D|---- 7------ 2------ 4--| 9------ 5-------- 2----|
A|------------------------|-------- 5------ 4-- 2--|
E| 5------ 3------ 2------| 0----------------------|
http://classicalguitartablature.blogspot.com/
E|---- 7-------------- 0--|-------- 7------10------|
B|---- 8-- 5---- 7--------|---- 3--10------ 8------|
G| 9-- 9-- 4-- 4-- 7------|---- 0-- 7------ 8------|
D| 9---------- 5----------|---- 0------ 7------ 8--|
A|-------- 2--------------|-------- 9------ 8------|
E| 8-------------- 5------| 3----------------------|
http://classicalguitartablature.blogspot.com/
E|12------------10------ 7|------ 9------ 5------ 7|
B| 8----------10-- 7---- 8|------10------ 8------ 8|
G|---- 9------ 9-- 7---- 7|------ 9------ 7--------|
D|-------------------- 7--|-- 9-------- 7---- 5----|
A|-------- 8------ 9----10|------ 0----------------|
E| 0----------------------|-------------- 6--------|
http://classicalguitartablature.blogspot.com/
E|-- 7---------- 5--------|---- 7 0------ 2--------|
B|---------- 2-- 3---- 3--|---- 8 0---- 0 5-- 5-- 5|
G| 9------ 7 2-- 4------ 9|---- 9 2---- 2 4-- 4-- 5|
D|-------- 7 2---------- 9|------------ 2---- 2-- 5|
A|---------- 4---- 5------|------------------------|
E| 7------ 8--------------| 0---- 2------ 3--------|
http://classicalguitartablature.blogspot.com/
E|-- 7--------------------|-- 7----------12------12|
B|--------------10--------|-- 8----------12------12|
G|-------- 7-- 6-- 7-- 7 9|-- 9-- 9------12------12|
D|-------- 6------ 7---- 9|---------- 9------11----|
A|------------------------|------------------------|
E| 5------ 7------ 8---- 9|------10------11--------|
http://classicalguitartablature.blogspot.com/
E|----------------12------|10-------------- 7---- 7|
B|----------------10------| 8---------- 8-- 7---- 3|
G|------------12------12--| 7---------- 7-- 7------|
D|----12------12----------|---- 9------ 6------ 7--|
A|------------------------|------------------------|
E| 0------10------ 9------| 7------ 6------ 5------|
http://classicalguitartablature.blogspot.com/
E|------ 5----------------|------------------------|
B|------ 7------ 8------ 7|------ 3-------------- 5|
G| 4---- 7------ 7------ 7|---- 9 2------ 2------ 4|
D|---- 5------ 7------ 6--| 7-- 7------ 4 0--------|
A|------------------------|------ 5----------------|
E| 3---- 5-------- 7------| 8-- 9---------- 0 2-- 3|
http://classicalguitartablature.blogspot.com/
E|-------------- 7------ 5|---------------------- 2|
B|-------------- 8------ 7|-------------- 8------ 3|
G|-------------- 7------ 7|------------ 7 7------ 2|
D|-- 5-------- 5---- 9----|---- 7------ 7---- 5----|
A|------------------------| 5----------------------|
E|------ 2-------- 0------|-------- 8---- 7------ 5|
http://classicalguitartablature.blogspot.com/
E|------ 0----------------|------------------------|
B|------ 1---------- 3-- 5|---------------------- 5|
G|-------- 2---- 2-- 2-- 7|---------- 6------ 4-- 4|
D|---- 4---- 2-- 0-- 1----|---- 5---- 5------ 5----|
A|------------------------|------ 6------ 5------ 4|
E|-------- 3---- 2---- 1--| 0----------------------|
http://classicalguitartablature.blogspot.com/
E|------------------ 7-- 5|------------------ 3-- 2|
B|------------------ 8-- 5|------------------ 5-- 1|
G|------------------ 7-- 5|---------- 4------ 5-- 2|
D|-- 5------ 5------------|-- 5------ 3------------|
A|------ 3----------------|------------------------|
E|-------------- 7------ 5|------ 4------ 3------ 2|
http://classicalguitartablature.blogspot.com/
E|------ 0----------------|------------------------|
B|------ 1---------- 3-- 5|------------------------|
G|------ 2---------- 4-- 4|---------- 4-------- 4--|
D|---- 2---- 2------ 5----|-- 5------ 5-------- 5--|
A|-------------- 5------ 4|------ 3------ 2--------|
E|------ 0----------------|------------------------|
http://classicalguitartablature.blogspot.com/
E| 0------------ 7------ 5|------ 3------ 2--------|
B| 0------------ 5------ 5|------ 3------ 1------ 7|
G| 5---------- 4-- 5---- 5|------ 2---------- 2-- 4|
D|---- 5------ 3------ 5--|-- 4------ 1------------|
A|------------------------|---------------------- 6|
E| 5------ 4------ 3---- 2|------ 1------ 0--------|
http://classicalguitartablature.blogspot.com/
E|------------------------|-- 7---------- 5--------|
B|------ 5------ 3--------|-- 8------ 2-- 3---- 3--|
G|------ 4------ 2------ 9|-- 9---- 7 2-- 4------ 9|
D|-- 7-- 5---- 5---- 4----| 9------ 7 2---------- 9|
A|-------- 4---- 3--------|---------- 4---- 5------|
E|------------------------| 7------ 8--------------|
http://classicalguitartablature.blogspot.com/
E|---- 7 0------ 2--------|-- 7--------------------|
B|---- 8 0---- 0 5-- 5-- 5|--------------10--------|
G|---- 9 2---- 2 4-- 4-- 5|-------- 7-- 6-- 7-- 7 9|
D|------------ 2---- 2-- 5|-------- 6------ 7---- 9|
A|------------------------|------------------------|
E| 0---- 2------ 3--------| 5------ 7------ 8---- 9|
http://classicalguitartablature.blogspot.com/
E|-- 7--------------------|------ 5---------- 5----|
B|-- 8---------- 7-- 5----|-- 3---------- 3--------|
G|-- 9-- 9------ 4-- 4----|------------------------|
D|---------- 9-- 4-- 4----|------------------------|
A|-------------- 6--------|------------------------|
E|------10-------------- 0|---------- 0---------- 5|
http://classicalguitartablature.blogspot.com/
E|------ 5---------- 5----|-------- 2--------------|
B|-- 3---------- 3--------|-- 3-------------- 3----|
G|------------------------|------------------------|
D|------------------------|------------------------|
A|------------------------|------------------------|
E|---------- 5---------- 3|-------------- 2--------|
http://classicalguitartablature.blogspot.com/
E| 2----------------------|-------- 0--------------|
B|------------------------|---- 3------------------|
G|------------------------|---- 0------------------|
D|------------------------|-- 4--------------------|
A|------------------------|------------------------|
E|------------------------| 0----------------------|
http://classicalguitartablature.blogspot.com/

0 ความคิดเห็น:

แสดงความคิดเห็น