To celebrate the anniversary, I am giving you (finally...) : iPhone LickByNeck !!!!!!

Sealed With A Kiss

Popular tune fingerstyle chord melody guitar arrangement played in the key of Dm.

Sealed With A Kiss played in the key of Dm.
http://classicalguitartablature.blogspot.com/
E|---------------- 3-- 1----------|------------------------ 5---- 3|
B| 1---------- 3-- 3-- 1---- 5----| 3------ 3-- 3-- 6-- 6-- 8 6-- 3|
G| 0---------- 2-- 2-- 2---- 3----| 5------ 2-- 2-- 7-- 7-- 7 5----|
D|---- 2------ 3------------ 5----|---- 3------ 3-- 7-- 7------ 4--|
A| 3------ 1------ 2-- 3---- 4----| 5------ 3----------------------|
E|--------------------------------|-------------- 7-------- 6-- 4--|
http://classicalguitartablature.blogspot.com/
E|--------------------------------|------------------------------ 6|
B|-------- 3-------------- 6-- 5--| 6-- 3------------------------ 8|
G| 3---- 3-- 3------------ 7-- 6--| 5------ 4---------- 2-------- 7|
D|-- 3---------------- 8------ 5--| 3---- 3---- 3------ 3------ 3--|
A|---------------- 8---------- 6--| 5---- 4------ 3-------- 2------|
E| 3------------------------------|--------------------------------|
http://classicalguitartablature.blogspot.com/
E|---- 6-------- 8---- 8----------|----------------10--------------|
B|---------- 8-- 8------------ 8--|10----------10--13--13--11--10--|
G|------------ 5 9------------ 9--| 9---------- 9--12--12-- 9--10--|
D|------------ 7-------------- 8--|----10------10------10-- 8-- 8--|
A|----------------10------ 9------| 8------ 7----------------------|
E| 6------ 5----------------------|--------------11-------- 9------|
http://classicalguitartablature.blogspot.com/
E|------------------------ 8 6----| 5---- 5-- 3---- 5-- 1----------|
B|11---------------------- 5-- 5--| 6---- 6---- 3-- 3-- 3-- 3------|
G|10----10-------- 9------ 5-- 5--| 5-- 5-- 4-- 4-- 2-- 1-- 5-- 4--|
D|---- 8---- 8-------- 8------ 5--|-- 7-------- 3---------- 3-- 3--|
A|--------------------------------|------------------------ 5-- 4--|
E|10------ 9------ 8------ 6------| 5------ 3------ 1-- 0----------|
http://classicalguitartablature.blogspot.com/
E|---------------- 3-- 1----------|------------------------ 5---- 3|
B| 1---------- 3-- 3-- 1---- 5----| 3------ 3-- 3-- 6-- 6-- 8 6-- 3|
G| 0---------- 2-- 2-- 2---- 3----| 5------ 2-- 2-- 7-- 7-- 7 5----|
D|---- 2------ 3------------ 5----|---- 3------ 3-- 7-- 7------ 4--|
A| 3------ 1------ 2-- 3---- 4----| 5------ 3----------------------|
E|--------------------------------|-------------- 7-------- 6-- 4--|
http://classicalguitartablature.blogspot.com/
E|--------------------------------|------------------------------ 6|
B|-------- 3-------------- 6-- 5--| 6-- 3------------------------ 8|
G| 3---- 3-- 3------------ 7-- 6--| 5------ 4---------- 2-------- 7|
D|-- 3---------------- 8------ 5--| 3---- 3---- 3------ 3------ 3--|
A|---------------- 8---------- 6--| 5---- 4------ 3-------- 2------|
E| 3------------------------------|--------------------------------|
http://classicalguitartablature.blogspot.com/
E|---- 6-------- 8---- 8----------|----------------10--------------|
B|---------- 8-- 8------------ 8--|10----------10--13--13--11--10--|
G|------------ 5 9------------ 9--| 9---------- 9--12--12-- 9--10--|
D|------------ 7-------------- 8--|----10------10------10-- 8-- 8--|
A|----------------10------ 9------| 8------ 7----------------------|
E| 6------ 5----------------------|--------------11-------- 9------|
http://classicalguitartablature.blogspot.com/
E|------------------------ 8 6----| 5---- 5-- 3---- 5-- 1----------|
B|11---------------------- 5-- 5--| 6---- 6---- 3-- 3-- 3-- 3------|
G|10----10-------- 9------ 5-- 5--| 5-- 5-- 4-- 4-- 2-- 1-- 5-- 4--|
D|---- 8---- 8-------- 8------ 5--|-- 7-------- 3---------- 3-- 3--|
A|--------------------------------|------------------------ 5-- 4--|
E|10------ 9------ 8------ 6------| 5------ 3------ 1-- 0----------|
http://classicalguitartablature.blogspot.com/
E|---------------- 3-- 1----------|--------------------------------|
B| 1---------- 3-- 3-- 1---- 5----| 3---------------------- 3------|
G| 0---------- 2-- 2-- 2---- 3----| 5------ 0------ 2------ 2------|
D|---- 2------ 3------------ 5----|---- 3------ 2------ 0------ 0--|
A| 3------ 1------ 2-- 3---- 4----| 5------------------------------|
E|--------------------------------|-------- 0------ 1------ 2------|
http://classicalguitartablature.blogspot.com/
E| 7------ 7-------------- 5-- 3--| 5------------------------------|
B| 3------ 8-------------- 3-- 5--| 6---------------------- 3------|
G| 4-- 4-- 7-- 7-- 7------ 4-- 3--| 5-- 5-- 0------ 2------ 2------|
D|-- 5---------------- 5----------|-- 7-------- 2------ 0------ 0--|
A|------------------------ 2-- 4--| 5------------------------------|
E| 3------ 5------ 6--------------|-------- 0------ 1------ 2------|
http://classicalguitartablature.blogspot.com/
E| 7------ 7---- 7-------- 5------|--------------------------------|
B| 3------ 8---- 6-------- 8-- 8--|10------------------------------|
G| 4-- 4-- 7---- 7---- 7-- 5-- 5--|10----10---- 9-- 7------ 5-- 7--|
D|-- 5-------- 9---- 6-------- 7--|----10------ 8------ 7-- 3-- 5--|
A|-------- 8------ 7------ 6------|--------------------------------|
E| 3------------------------------|10------ 9------ 8------ 5-- 6--|
http://classicalguitartablature.blogspot.com/
E| 7------ 7------ 7---- 5-- 3----| 5-- 5-------------------- 5----|
B| 8------ 5------ 6------ 3-- 2--| 3-- 3-------------------- 6----|
G| 7-- 7-- 5---- 5 4------ 4-- 0--| 2-- 3------ 3-- 5---------- 5--|
D|-- 9-------- 5------ 6------ 2--|-------------------- 7----------|
A|--------------------------------|---------------- 5--------------|
E| 7------ 5------ 4------ 3-- 0--| 1------ 0-------------- 8------|
http://classicalguitartablature.blogspot.com/
E| 7-- 7-------------- 7-- 5-- 7--| 9------10--10--10------ 3-- 1 3|
B| 6-- 6-------------- 5-- 5--10--|10------ 8--10--10--10-- 3-- 3 3|
G| 7-- 7---- 7-------- 4-- 4-- 7--| 9------ 7--10--10--10-- 3-- 2--|
D|---------- 7--------------------|--------------------10----------|
A|-------- 0------------------ 8--|10-- 0--------------------------|
E| 7-------------- 4------ 3------|-------- 6-- 7-- 8--10-- 0-- 1--|
http://classicalguitartablature.blogspot.com/
E|--------------------------------|------------------------------ 6|
B|-------- 3-------------- 6-- 5--| 6-- 3------------------------ 8|
G| 3---- 3-- 3------------ 7-- 6--| 5------ 4---------- 2-------- 7|
D|-- 3---------------- 8------ 5--| 3---- 3---- 3------ 3------ 3--|
A|---------------- 8---------- 6--| 5---- 4------ 3-------- 2------|
E| 3------------------------------|--------------------------------|
http://classicalguitartablature.blogspot.com/
E|---- 6-------- 8---- 8----------|----------------10--------------|
B|---------- 8-- 8------------ 8--|10----------10--13--13--11--10--|
G|------------ 5 9------------ 9--| 9---------- 9--12--12-- 9--10--|
D|------------ 7-------------- 8--|----10------10------10-- 8-- 8--|
A|----------------10------ 9------| 8------ 7----------------------|
E| 6------ 5----------------------|--------------11-------- 9------|
http://classicalguitartablature.blogspot.com/
E|------------------------ 8 6----| 5---- 5-- 3---- 5-- 1----------|
B|11---------------------- 5-- 5--| 6---- 6---- 3-- 3-- 3-- 3------|
G|10----10-------- 9------ 5-- 5--| 5-- 5-- 4-- 4-- 2-- 1-- 5-- 4--|
D|---- 8---- 8-------- 8------ 5--|-- 7-------- 3---------- 3-- 3--|
A|--------------------------------|------------------------ 5-- 4--|
E|10------ 9------ 8------ 6------| 5------ 3------ 1-- 0----------|
http://classicalguitartablature.blogspot.com/
E|---------------- 3-- 1----------|--------------------------------|
B| 1---------- 3-- 3-- 1---- 5-- 3|--------------------------------|
G| 0---------- 2-- 2-- 2---- 3-- 5|-------- 2------ 2------ 2------|
D|---- 2------ 3------------ 5----|---- 3------ 5------ 3------ 3--|
A| 3------ 1------ 2-- 3---- 4-- 5|------ 4-------- 3------ 2------|
E|--------------------------------|--------------------------------|
http://classicalguitartablature.blogspot.com/
E|---------------- 3-- 1----------|--------------------------------|
B| 1---------- 3-- 3-- 1---- 5-- 3|--------------------------------|
G| 0---------- 2-- 2-- 2---- 3-- 5|-------- 2------ 2------ 2------|
D|---- 2------ 3------------ 5----|---- 3------ 5------ 3------ 3--|
A| 3------ 1------ 2-- 3---- 4-- 5|------ 4-------- 3------ 2------|
E|--------------------------------|--------------------------------|
http://classicalguitartablature.blogspot.com/
E|---------------- 3-- 1----------|--------------------------------|
B| 1---------- 3-- 3-- 1---- 5----|-- 3----------------------------|
G| 0---------- 2-- 2-- 2---- 3----|-- 4----------------------------|
D|---- 2------ 3------------ 5----| 3------------------------------|
A| 3------ 1------ 2-- 3---- 4----| 5------------------------------|
E|--------------------------------|--------------------------------|
http://classicalguitartablature.blogspot.com/

0 ความคิดเห็น:

แสดงความคิดเห็น