To celebrate the anniversary, I am giving you (finally...) : iPhone LickByNeck !!!!!!

Sleep Walk (BASIC)

A pop classic tune fingerstyle chord melody guitar BASIC arrangement played in the key of C.
You need to install the Flash plugin - http://www.webestools.com/

Sleep Walk - BASIC ARRANGEMENT played in the key of C
http://classicalguitartablature.blogspot.com/
E|---- 0-- 0-- 0-- 0-- 0--|---- 5-- 5-- 5-- 5-- 5--|
B|---- 1-- 1-- 1-- 1-- 1--|---- 5-- 5-- 5-- 5-- 5--|
G|---- 0-- 0-- 0-- 0-- 0--|---- 5-- 5-- 5-- 5-- 5--|
D|------------------------|------------------------|
A| 3---------- 3----------| 0---------- 0----------|
E|------------------------|------------------------|
http://classicalguitartablature.blogspot.com/
E|------------------------|------------ 3-- 5--12--|
B|------------------------|-- 0---- 0-- 3----------|
G|---- 1-- 1-- 1-- 1 1----|-- 0---- 0-- 4----------|
D|---- 3-- 3-- 3-- 3 3----|-- 0---- 0--------------|
A|------------------------|------------------------|
E| 1---------- 1----------| 3---------- 3----------|
http://classicalguitartablature.blogspot.com/
E| 7----------------------|---- 5-- 5-- 5-- 5-- 5--|
B| 8----------------------|---- 5-- 5-- 5-- 5-- 5--|
G| 9-- 9-- 9-- 9-- 9 9----|---- 5-- 5-- 5-- 5-- 5--|
D|----10--10--10--1010----|------------------------|
A|------------------------| 0---------- 0----------|
E| 8---------- 8----------|------------------------|
http://classicalguitartablature.blogspot.com/
E|------------------------|---------------------- 8|
B|------------------------|-- 0---- 0-- 0-- 0-- 0--|
G|---- 1-- 1-- 1-- 1 1----|-- 0---- 0-- 0-- 0-- 0--|
D|---- 3-- 3-- 3-- 3 3----|-- 0---- 0-- 0-- 0-- 0--|
A|------------------------|------------------------|
E| 1---------- 1----------| 3---------- 3----------|
http://classicalguitartablature.blogspot.com/
E|---------------------- 3|------------------------|
B| 8-------------------- 1|-- 1-- 1---- 1-- 1-- 1--|
G| 9-- 9-- 9 9---- 9 9-- 2|---- 2 2---- 2-- 2-- 2--|
D|----10--10--10--1010----|---- 2 2-------- 2-- 2--|
A|------------------------| 0---------- 0----------|
E| 8---------- 8----------|------------------------|
http://classicalguitartablature.blogspot.com/
E|-------------- 1--------| 4---- 3-------------- 8|
B|---------- 1-- 1-- 1----| 3---- 3------ 6--------|
G|-- 1-- 1-- 1-- 1-- 1----| 4-- 4 4------ 4--------|
D|-- 3-- 3-- 3------------|---- 3-------- 3---- 3--|
A|------------------------|------------------------|
E| 1-------- 1------------| 3---------- 3----------|
http://classicalguitartablature.blogspot.com/
E|---------------------- 3|------------------------|
B| 8-------------------- 1|-- 1-- 1---- 1-- 1-- 1--|
G| 9-- 9-- 9 9---- 9 9-- 2|---- 2 2---- 2-- 2-- 2--|
D|----10--10--10--1010----|---- 2 2-------- 2-- 2--|
A|------------------------| 0---------- 0----------|
E| 8---------- 8----------|------------------------|
http://classicalguitartablature.blogspot.com/
E|-------------- 1--------| 4---- 3----------------|
B|---------- 1-- 1-- 1----| 3---- 3------ 6--------|
G|-- 1-- 1-- 1-- 1-- 1----| 4-- 4 4------ 4--------|
D|-- 3-- 3-- 3------------|---- 3-------- 3---- 3--|
A|------------------------|------------------------|
E| 1-------- 1------------| 3---------- 3----------|
http://classicalguitartablature.blogspot.com/
E| 3-------- 0-- 3 0------|------------------------|
B| 1-- 1-- 1 1-- 1 1 1----|------------------------|
G| 0-- 0-- 0 0-- 0 0 0-- 2|---- 2-- 2---- 2---- 2--|
D|---- 2-- 2-------- 2-- 2|---- 2-- 2---- 2---- 2--|
A| 3-------- 3---------- 0|------------ 0----------|
E|------------------------|------------------------|
http://classicalguitartablature.blogspot.com/
E|------------------------|------------------------|
B|-------------- 1-- 1-- 5|---- 5-------------- 5--|
G|---- 1 1-- 1-- 1-- 1-- 4|---- 4---------- 4------|
D|---- 3 3-- 3-- 3-- 3-- 3|---- 3---------- 3------|
A|------------------------|------------------------|
E| 1---------- 1-------- 3|---------- 3------------|
http://classicalguitartablature.blogspot.com/
E|--------------------12 7|------------------------|
B|------------ 8--10---- 5|---- 5-- 5-- 5 5---- 5--|
G| 9---------- 9-------- 5|---- 5-- 5-- 5 5---- 5--|
D|10--1010----10----------|---- 7-- 7-- 7 7---- 7--|
A|------------------------| 0---------- 0----------|
E| 8---------- 8----------|------------------------|
http://classicalguitartablature.blogspot.com/
E|------------------------|---------------------- 8|
B|------------------------| 0-- 0-- 0-- 0-- 0-- 0--|
G| 1-- 1-- 1-- 1-- 1-- 1--| 0-- 0-- 0-- 0-- 0-- 0--|
D| 3-- 3-- 3-- 3-- 3-- 3--| 0-- 0-- 0-- 0-- 0-- 0--|
A|------------------------|------------------------|
E| 1---------- 1----------| 3---------- 3----------|
http://classicalguitartablature.blogspot.com/
E|---------------------- 3|------------------------|
B| 8-------------------- 1|-- 1-- 1---- 1-- 1-- 1--|
G| 9-- 9-- 9 9---- 9 9-- 2|---- 2 2---- 2-- 2-- 2--|
D|----10--10--10--1010----|---- 2 2-------- 2-- 2--|
A|------------------------| 0---------- 0----------|
E| 8---------- 8----------|------------------------|
http://classicalguitartablature.blogspot.com/
E|-------------- 1--------| 4---- 3-------------- 8|
B|---------- 1-- 1-- 1----| 3---- 3------ 6--------|
G|-- 1-- 1-- 1-- 1-- 1----| 4-- 4 4------ 4--------|
D|-- 3-- 3-- 3------------|---- 3-------- 3---- 3--|
A|------------------------|------------------------|
E| 1-------- 1------------| 3---------- 3----------|
http://classicalguitartablature.blogspot.com/
E|---------------------- 3|------------------------|
B| 8-------------------- 1|-- 1-- 1---- 1-- 1-- 1--|
G| 9-- 9-- 9 9---- 9 9-- 2|---- 2 2---- 2-- 2-- 2--|
D|----10--10--10--1010----|---- 2 2-------- 2-- 2--|
A|------------------------| 0---------- 0----------|
E| 8---------- 8----------|------------------------|
http://classicalguitartablature.blogspot.com/
E|-------------- 1--------| 4---- 3----------------|
B|---------- 1-- 1-- 1----| 3---- 3------ 6--------|
G|-- 1-- 1-- 1-- 1-- 1----| 4-- 4 4------ 4--------|
D|-- 3-- 3-- 3------------|---- 3-------- 3---- 3--|
A|------------------------|------------------------|
E| 1-------- 1------------| 3---------- 3----------|

E| 3-------- 0-- 3 0------|------------------------|
B| 1-- 1-- 1 1-- 1 1 1----|------------------------|
G| 0-- 0-- 0 0-- 0 0 0-- 2|---- 2-- 2---- 2---- 2--|
D|---- 2-- 2-------- 2-- 2|---- 2-- 2---- 2---- 2--|
A| 3-------- 3---------- 0|------------ 0----------|
E|------------------------|------------------------|
http://classicalguitartablature.blogspot.com/
E|------------------------|------------------------|
B|-------------- 1-- 1-- 5|---- 5-------------- 5--|
G|---- 1 1-- 1-- 1-- 1-- 4|---- 4---------- 4------|
D|---- 3 3-- 3-- 3-- 3-- 3|---- 3---------- 3------|
A|------------------------|------------------------|
E| 1---------- 1-------- 3|---------- 3------------|
http://classicalguitartablature.blogspot.com/
E|------------------------|------------------------|
B| 1-- 1-- 1---- 1---- 1--|---- 3-- 3---- 3---- 3--|
G| 0-- 0-- 0---- 0-- 0----|---- 2-- 2---- 2---- 2--|
D| 2-- 2-- 2---- 2---- 2--|---- 1-- 1---- 1---- 1--|
A| 3-------- 3------------|------------------------|
E|------------------------| 1---------- 1----------|
http://classicalguitartablature.blogspot.com/
E|------------------------|------------------------|
B|---- 1-- 1-- 1-- 1-- 1--|-------------------- 1--|
G|---- 0-- 0-- 0-- 0-- 0--|-------- 3------ 3------|
D|---- 2-- 2-- 2-- 2-- 2--|---- 2-- 2------ 2------|
A| 3---------- 3----------|------------------------|
E|------------------------| 2---------- 2----------|
http://classicalguitartablature.blogspot.com/
E|------------------------|12------10---- 8--------|
B|10----------------------|10------10----10--------|
G| 9-- 9-- 9------ 9-- 9--| 9-- 9------------ 9----|
D|10--10--10------10--10--|------------------------|
A| 8-------- 8------------| 8-------- 8------------|
E|------------------------|------------------------|
http://classicalguitartablature.blogspot.com/
E|------------------------|12------10---- 8--------|
B| 9----------------------| 9------ 9---- 9--------|
G|10------10------10--10--|1010----10------10--10--|
D|10--10--10------10--10--|------------------------|
A| 8---------- 8----------| 8-------- 8------------|
E|------------------------|------------------------|
http://classicalguitartablature.blogspot.com/
E| 3-------------------- 5|------------------------|
B| 1-- 1 1------ 1-- 1----| 5----------------------|
G| 0-- 0 0------ 0---- 0--| 5 5-- 5-------- 5-- 5--|
D|---- 2 2------ 2---- 2--|---- 5-- 5------ 5-- 5--|
A| 3---------- 3----------|------------------------|
E|------------------------| 3---------- 3----------|
http://classicalguitartablature.blogspot.com/
E| 3----------------------|------------------------|
B| 1-- 1-- 1---- 1---- 1--|------------------ 1----|
G| 0-- 0-- 0------ 0-- 0--|-------- 3-------- 3----|
D|---- 2-- 2------ 2-- 2--|---- 2---------- 2------|
A| 3---------- 3----------|------------------------|
E|------------------------| 2---------- 2----------|
http://classicalguitartablature.blogspot.com/
E|------------------------|12------10---- 8--------|
B|10----------------------|10------10----10--------|
G| 9 9---- 9------ 9 9----| 9-- 9------------ 9----|
D|10--10--10------1010----|------------------------|
A| 8-------- 8------------| 8-------- 8------------|
E|------------------------|------------------------|
http://classicalguitartablature.blogspot.com/
E|------------------------|12------10---- 8--------|
B| 9----------------------| 9------ 9---- 9--------|
G|10------10------10--10--|1010----10------10--10--|
D|10--10--10------10--10--|------------------------|
A| 8---------- 8----------| 8-------- 8------------|
E|------------------------|------------------------|
http://classicalguitartablature.blogspot.com/
E| 3-------------------- 6|------ 6------ 6------ 3|
B| 3------ 3------ 3-- 3 6|------ 6------ 6------ 3|
G| 4-- 4-- 4------ 4-- 4 4|------ 4------ 4------ 4|
D|---- 3-- 3------ 3-- 3--|---- 3------ 3---- 3----|
A|------------------------|------------------------|
E| 3---------- 3----------| 3------ 3------ 3------|
http://classicalguitartablature.blogspot.com/
E|------------------------|---------------------- 8|
B|------------------------|------------------------|
G|-- 4-- 4---- 4-- 4 4----| 4---- 5-------- 7------|
D|-- 3-- 3---- 3-- 3-- 3--| 3---- 3-------- 5------|
A|------------------------|------------------------|
E| 3---------- 3----------| 3------ 5------ 7------|
http://classicalguitartablature.blogspot.com/
E|---------------------- 3|------------------------|
B| 8-------------------- 1|-- 1-- 1---- 1-- 1-- 1--|
G| 9-- 9-- 9 9---- 9 9-- 2|---- 2 2---- 2-- 2-- 2--|
D|----10--10--10--1010----|---- 2 2-------- 2-- 2--|
A|------------------------| 0---------- 0----------|
E| 8---------- 8----------|------------------------|
http://classicalguitartablature.blogspot.com/
E|-------------- 1--------| 4---- 3-------------- 8|
B|---------- 1-- 1-- 1----| 3---- 3------ 6--------|
G|-- 1-- 1-- 1-- 1-- 1----| 4-- 4 4------ 4--------|
D|-- 3-- 3-- 3------------|---- 3-------- 3---- 3--|
A|------------------------|------------------------|
E| 1-------- 1------------| 3---------- 3----------|
http://classicalguitartablature.blogspot.com/
E|---------------------- 3|------------------------|
B| 8-------------------- 1|-- 1-- 1---- 1-- 1-- 1--|
G| 9-- 9-- 9 9---- 9 9-- 2|---- 2 2---- 2-- 2-- 2--|
D|----10--10--10--1010----|---- 2 2-------- 2-- 2--|
A|------------------------| 0---------- 0----------|
E| 8---------- 8----------|------------------------|
http://classicalguitartablature.blogspot.com/
E|-------------- 1--------| 4---- 3----------------|
B|---------- 1-- 1-- 1----| 3---- 3------ 6--------|
G|-- 1-- 1-- 1-- 1-- 1----| 4-- 4 4------ 4--------|
D|-- 3-- 3-- 3------------|---- 3-------- 3---- 3--|
A|------------------------|------------------------|
E| 1-------- 1------------| 3---------- 3----------|
http://classicalguitartablature.blogspot.com/
E| 3-------- 0-- 3 0------|------------------------|
B| 1-- 1-- 1 1-- 1 1 1----|------------------------|
G| 0-- 0-- 0 0-- 0 0 0-- 2|---- 2-- 2---- 2---- 2--|
D|---- 2-- 2-------- 2-- 2|---- 2-- 2---- 2---- 2--|
A| 3-------- 3---------- 0|------------ 0----------|
E|------------------------|------------------------|
http://classicalguitartablature.blogspot.com/
E|------------------------|------------------------|
B|-------------- 1-- 1-- 5|---- 5-------------- 5--|
G|---- 1 1-- 1-- 1-- 1-- 4|---- 4---------- 4------|
D|---- 3 3-- 3-- 3-- 3-- 3|---- 3---------- 3------|
A|------------------------|------------------------|
E| 1---------- 1-------- 3|---------- 3------------|
http://classicalguitartablature.blogspot.com/
E|--------------------12 7|------------------------|
B|------------ 8--10---- 5|---- 5-- 5-- 5 5---- 5--|
G| 9---------- 9-------- 5|---- 5-- 5-- 5 5---- 5--|
D|10--1010----10----------|---- 7-- 7-- 7 7---- 7--|
A|------------------------| 0---------- 0----------|
E| 8---------- 8----------|------------------------|
http://classicalguitartablature.blogspot.com/
E|------------------------|------------------------|
B|-------------- 1-- 1----| 5----------------------|
G|---- 1 1-- 1-- 1-- 1----| 4----------------------|
D|---- 3 3-- 3-- 3-- 3----| 3----------------------|
A|------------------------|------------------------|
E| 1---------- 1-------- 3|------------------------|
http://classicalguitartablature.blogspot.com/
E|---- 3------ 5---- 6 711|------------------------|
B|------------------------|------------------------|
G|------------------------|------------------------|
D|------------------------|------------------------|
A|------------------------|------------------------|
E|------------------------|------------------------|
http://classicalguitartablature.blogspot.com/
E|------ 7----------------|------------------------|
B|------ 8----------------|------------------------|
G|---- 7------------------|------------------------|
D|---- 7------------------|------------------------|
A|------------------------|------------------------|
E| 8----------------------|------------------------|
http://classicalguitartablature.blogspot.com/

0 ความคิดเห็น:

แสดงความคิดเห็น