To celebrate the anniversary, I am giving you (finally...) : iPhone LickByNeck !!!!!!

Star Bangled Banner

USA National Anthem fingerstyle chord melody guitar arrangement played in the key of G.

Star Bangled Bannerplayed in the key of G.
http://classicalguitartablature.blogspot.com/
E|------------------------|------------------------|
B|-------------- 3---- 0--|------ 0------ 3------ 8|
G|-------------- 2---- 2--| 0---- 2-------- 2------|
D|-------------- 1---- 0--|---- 0------ 0------ 1--|
A|------------------------|---------------------- 7|
E|-------------- 1---- 2--| 3------ 2------ 1------|
http://classicalguitartablature.blogspot.com/
E|---------------- 7-- 5--| 3----------------------|
B|---------------- 8-- 8--| 0------ 0------ 2---- 3|
G| 7---------- 7-- 5-- 5--| 0------ 2------ 2---- 2|
D|---- 9------------------|---- 0------ 0------ 2--|
A|---------------- 6------|------------------------|
E|--------10------------ 0|-------- 2------ 3---- 5|
http://classicalguitartablature.blogspot.com/
E|---------------------- 7|------------------------|
B|---------------------- 8|------------10-- 8---- 7|
G|------------ 7-- 7-- 7 7|------------ 9-- 8------|
D|---- 4------ 5 7---- 7--|---- 9------ 9-- 7-- 7--|
A|------------------------|------------------------|
E|-------- 7---- 8--------|10------ 9------ 8------|
http://classicalguitartablature.blogspot.com/
E|------------------------| 3------ 3--------------|
B|-------------- 5---- 7--| 3---- 3-------- 3------|
G| 7---------- 7 5---- 5--| 2-- 2-- 2-- 2-- 0------|
D|---- 5------ 5 5---- 4--|---------------- 0-- 0--|
A|------------------------|------------------------|
E| 7------ 6---- 5---- 4--| 3------ 2------ 1------|
http://classicalguitartablature.blogspot.com/
E|------------------------|------------------------|
B| 0-------------- 3------|-------- 0---- 3------ 8|
G| 0------ 0------ 4-- 4--| 0------ 0------ 2---- 7|
D|---- 0------ 3-- 5------|---- 2------ 1-- 3-- 3 6|
A|-------- 6---- 5--------| 4------ 3------ 2------|
E| 0----------------------|------------------------|
http://classicalguitartablature.blogspot.com/
E|-------------- 7--------|------------------------|
B|---- 8--------10----10 8|------------------------|
G|---- 7------ 6 9---- 9--| 8------ 4------ 6------|
D|---- 6------ 5----------|---- 7------ 5------ 5--|
A|--------------10--------| 8------ 7------ 6------|
E| 6------ 5--------------|------------------------|
http://classicalguitartablature.blogspot.com/
E|------------------------| 7----------------------|
B| 3-- 3---------- 3-- 3--| 8-- 8------10 8--------|
G| 2-- 2------ 2-- 2-- 2--| 7-- 7------ 7-- 7------|
D| 4-- 4------ 2-- 4-- 4--|---- 9------ 7-- 9-- 9--|
A| 5------ 4---- 3--------|------------------------|
E|------------------------| 7------ 8------10------|
http://classicalguitartablature.blogspot.com/
E|------------------------|------------------------|
B| 7------------------ 7--| 8------ 8------ 3------|
G| 5---------- 8 9--------| 7------ 5------ 4------|
D|---- 7------10-- 7------| 5-- 5-- 7-- 7------ 5--|
A| 6------ 9------ 8------| 7------ 6------ 5------|
E|------------------------|------------------------|
http://classicalguitartablature.blogspot.com/
E|-------------- 7---- 7 7|------ 8--------10------|
B| 0------------ 8---- 7 8|------10-------- 8------|
G| 0------ 0---- 7---- 5 7|------------ 7-- 8-- 8--|
D| 2-- 2------ 2----------|---- 9------------------|
A| 4------ 3------------10|------ 9-------- 8------|
E|-------------- 7---- 5--|------------------------|
http://classicalguitartablature.blogspot.com/
E|10----------------------|------ 7------ 8--------|
B|13--------------13--1210|------10-------- 8------|
G|12----------12--12--12 9|------ 9-------- 7------|
D|----10------1010----10 9|---- 9------ 7------ 7--|
A|------------------------|------------------------|
E|12------11----10--------| 9------ 8------ 7------|
http://classicalguitartablature.blogspot.com/
E| 8----------------------| 7----------------------|
B| 8--------------13------|10----------10-- 8------|
G| 7-- 7------ 6--10------|---- 9------ 9-- 8------|
D|---- 6------ 5--12--12--|------------10-- 7-- 7--|
A|----------------11------|10------ 9------ 8------|
E| 6------ 5--------------|------------------------|
http://classicalguitartablature.blogspot.com/
E|------------------------|------------------------|
B| 7------------------ 7--| 8-------------- 2------|
G| 5-- 5---------- 9------| 7------ 4------ 2------|
D| 7-- 7------ 7-- 7------| 6-- 6------ 3-- 2-- 2--|
A| 6------ 5--------------|------------------------|
E|---------------- 8------| 6------ 4------ 3------|
http://classicalguitartablature.blogspot.com/
E|------------------------|------------------------|
B| 3-------------- 3---- 8|-------- 8---- 8---- 7--|
G| 2---------- 5-- 3---- 7|-------- 9---- 8---- 8--|
D|---- 4------ 5------ 5--|---- 9------ 9 7---- 7--|
A|---------------- 6------|------------------------|
E| 2------ 0--------------|10------ 9---- 8--------|
http://classicalguitartablature.blogspot.com/
E|------------------------| 5------ 8-- 7----------|
B| 5-- 5---------- 5------| 5------10--10--10-- 8--|
G| 7---- 7---- 7-- 4------| 5-- 5-- 9-- 9-- 8-- 8--|
D| 5-- 5------ 5------ 3--|----------------10--10--|
A|------------------------|-------- 9------ 8------|
E| 7------ 5------ 4------| 3----------------------|
http://classicalguitartablature.blogspot.com/
E|------------------------|------------------------|
B| 8-- 8------------------| 7-------------- 3------|
G| 7-- 7------ 5------ 5--| 7-------------- 5------|
D| 5-- 5------ 7-- 5-- 5--| 7-------------- 5------|
A| 7------ 6------ 5------|------------------------|
E|------------------------| 8------ 7------ 5------|
http://classicalguitartablature.blogspot.com/
E| 3-- 3------ 5 7---- 810|------------------------|
B| 3-- 3------ 3 8---- 813|---------------- 8--10--|
G| 2-- 2------ 2 7---- 712|------------12-- 9-- 9--|
D|------------------------|----10------10 9---- 9--|
A|-------------- 8--------|------------------------|
E| 3------ 2------------12|------11------10--------|
http://classicalguitartablature.blogspot.com/
E| 7---------- 8----------|------------------------|
B| 8----------10--10------| 8---------- 8----------|
G| 9---------- 8-- 7------| 7------ 7---------- 7--|
D|---- 9---------- 7-- 7--|---- 6---------- 6------|
A|------------------------|------------------------|
E| 9------ 8------ 7------| 6----------------------|
http://classicalguitartablature.blogspot.com/
E|---------------- 3------| 3----------------------|
B| 8------------ 8 6-- 6--| 3---------- 3-- 3-- 0--|
G| 6------ 6------ 5-- 5--|------ 2-------- 0-- 2--|
D|---- 5-------------- 3--|---- 2---------- 0-- 1--|
A|------------------------|------------------------|
E| 5-------------- 4------| 3-------------- 3-- 2--|
http://classicalguitartablature.blogspot.com/
E|------------------------| 3----------------------|
B|-------- 0------ 3------| 3----------------------|
G| 0------ 0------ 3------| 4----------------------|
D| 0---- 0------ 5--------|------------------------|
A|-------------- 6------ 5|------------------------|
E| 1---- 0----------------|------------------------|
http://classicalguitartablature.blogspot.com/
http://classicalguitartablature.blogspot.com/

0 ความคิดเห็น:

แสดงความคิดเห็น