To celebrate the anniversary, I am giving you (finally...) : iPhone LickByNeck !!!!!!

Thriller-Michael Jackson

Michael Jackson's hit fingerstyle solo guitar arrangement played in the key of Am.

Thriller played in the key of Am.
http://classicalguitartablature.blogspot.com/
E|--------------------------------|--------------------------------|
B|--------------------------------|------------------------------ 0|
G| 2-- 2-- 2-- 2-- 2-- 2-- 2-- 2--| 2-- 2-- 2 2-- 2---- 2 2-- 2-- 0|
D| 2-- 2-- 2-- 2-- 2------ 2-- 2--| 2-- 2 2---- 2-- 2-- 2 2-- 2-- 0|
A| 0-------------- 0--------------| 0-------------- 0--------------|
E|--------------------------------|--------------------------------|
http://classicalguitartablature.blogspot.com/
E|--------------------------------|--------------------------------|
B|------ 0-- 0------ 0------ 0-- 0|-- 0-- 0-- 0-- 0-- 0-- 0---- 0--|
G|---- 0 0-- 0-- 0-- 0-- 0-- 0-- 0|-- 0---------- 0-- 0------ 0----|
D|---------- 0-- 0-- 0------ 0-- 0|---------- 0-- 0-- 0-- 0-- 0----|
A| 0------------ 0-------------- 0|-------------- 0----------------|
E|--------------------------------|--------------------------------|
http://classicalguitartablature.blogspot.com/
E|--------------------------------|--------------------------------|
B| 1-- 1-- 1-- 1-- 1-- 1------ 1--| 1-- 1-- 1-- 1 1---- 1 1---- 1--|
G| 2-- 2-- 2-- 2-- 2-- 2-- 2-- 2--| 2-- 2-- 2-- 2 2---- 2 2-- 2----|
D| 3------ 3-- 3-- 3------ 3-- 3--| 3------ 3-- 3 3---- 3 3-- 3----|
A| 0-------------- 0--------------| 0-------------- 0--------------|
E|--------------------------------|--------------------------------|
http://classicalguitartablature.blogspot.com/
E|--------------------------------|--------------------------------|
B| 3-- 3 3---- 3 3-- 3---- 3-- 3 3|---- 3-- 3-- 3-- 3 3-- 3---- 3--|
G| 2-- 2 2---- 2 2-- 2-- 2---- 2 2|---- 2-- 2-- 2-- 2-- 2 2-- 2----|
D| 4---- 4---- 4 4------ 4---- 4 4|-------- 4-- 4-- 4---- 4-- 4----|
A| 0-------------- 0--------------| 0-------------- 0--------------|
E|--------------------------------|--------------------------------|
http://classicalguitartablature.blogspot.com/
E|--------------------------------|------------------------------ 5|
B| 4-- 4-- 4-- 4-- 4-- 4-- 4-- 4--| 4-- 4-- 4-- 4-- 4-- 4-- 4-- 4 5|
G| 5-- 5-- 5-- 5-- 5-- 5-- 5-- 5--| 5-- 5-- 5 5---- 5-- 5-- 5---- 5|
D| 4------ 4-- 4-- 4---------- 4--| 4------ 4-- 4-- 4-- 4-- 4-- 4--|
A| 0-------------- 0--------------| 0-------------- 0--------------|
E|--------------------------------|--------------------------------|
http://classicalguitartablature.blogspot.com/
E|--------------------------------|--------------------------------|
B|---- 8------------------------ 8|------ 7-------- 5--------------|
G|---- 5------------------------ 9|------ 7-------- 5---- 5------ 2|
D|---- 5------------------------10|-------- 7------ 5---- 5------ 4|
A|--------------------------------|-------- 5----------------------|
E| 5-- 8--------------------------| 8-------------- 5--------------|
http://classicalguitartablature.blogspot.com/
E|--------------------------------|--------------------------------|
B|--------------------------------|--------------------------------|
G|---------------------- 2------ 2|---------------------- 2------ 5|
D|---------------------- 4------ 4|---------------------- 4------ 5|
A|-------- 3-- 5-- 0--------------|-------- 3-- 5-- 0--------------|
E| 3-- 5--------------------------| 3-- 5--------------------------|
http://classicalguitartablature.blogspot.com/
E|--------------------------------|--------------------------------|
B|--------------------------------|--------------------------------|
G|---------------------- 5------ 5|---------------------- 5------ 2|
D|---------------------- 5------ 5|---------------------- 5------ 4|
A|-------- 3-- 5------------------|-------- 3-- 5------------------|
E| 3-- 5---------- 5--------------| 3-- 5---------- 5--------------|
http://classicalguitartablature.blogspot.com/
E|--------------------------------|--------------------------------|
B|--------------------------------|--------------------------------|
G|---------------------- 2-- 4----| 5---------- 2---- 0-------- 2 2|
D|-------------------- 5----------| 4------------------ 2----------|
A|-------- 3-- 5 0----------------|-------- 3-- 5-- 0--------------|
E| 3-- 5--------------------------| 3-- 5------------------------ 3|
http://classicalguitartablature.blogspot.com/
E|--------------------------------|--------------------------------|
B|------------------------ 1------|--------------------------------|
G|---- 0-- 2---- 2-- 0-- 2--------| 2-- 0------------------------ 5|
D|------------ 5 4----------------|---- 2---------------- 2------ 5|
A|---- 0-- 3 5-- 0----------------|---- 0-- 3-- 5-- 0--------------|
E|------------------------------ 3|--------------------------------|
http://classicalguitartablature.blogspot.com/
E|--------------------------------|--------------------------------|
B|------------------------ 0------|--------------------------------|
G|-------------------- 0 2--------| 5---------- 2---- 0-------- 2 2|
D|-------------------- 2----------| 4------------------ 2----------|
A|-------- 3 5-- 0----------------|-------- 3-- 5-- 0--------------|
E| 3-- 5--------------------------| 3-- 5------------------------ 3|
http://classicalguitartablature.blogspot.com/
E|--------------------------------|------------------------ 0------|
B|------------------------ 1------|---------------------- 1---- 3--|
G|---- 0-- 2---- 2-- 0-- 2--------| 2-- 0-------------- 2------ 5--|
D|------------ 5 4----------------|---- 2------------------------ 4|
A|---- 0-- 3 5-- 0----------------|---- 0-- 3-- 5 0----------------|
E|------------------------------ 3|--------------------------------|
http://classicalguitartablature.blogspot.com/
E|--------------------------------|--------------------------------|
B|-- 1---------------------- 3-- 3|------ 1------------------------|
G|---- 2---------------- 2------ 5|-- 5-- 2-- 4-- 4---- 2-- 2-- 4--|
D|---- 4---------------- 4--------|-- 4-- 4-- 4-- 4---- 4-- 4-- 4--|
A|---- 0-- 3 5---- 0--------------|-------- 3-- 5-- 0--------------|
E| 3------------------------------| 3-- 5--------------------------|
http://classicalguitartablature.blogspot.com/
E|--------------------------------|------------------------ 0------|
B| 1------------------------------|---------------------- 1---- 3--|
G| 2-- 2------ 0---------------- 2|-------------------- 2------ 5--|
D|---- 2-------- 2------ 2------ 2|------------------------------ 4|
A|---- 0-- 3-- 5-- 0--------------|-------- 3-- 5 0----------------|
E| 3------------------------------| 3-- 5--------------------------|
http://classicalguitartablature.blogspot.com/
E|--------------------------------|--------------------------------|
B|-- 1---------------------- 3-- 3|------ 1-------------------- 1--|
G|---- 2---------------- 2------ 5|-- 5-- 2-- 4-- 4---- 2-- 2-- 4--|
D|---- 4---------------- 4--------|-- 4-- 4-- 4-- 4---- 4-- 4-- 4--|
A|---- 0-- 3 5---- 0--------------|-------- 3-- 5-- 0--------------|
E| 3------------------------------| 3-- 5--------------------------|
http://classicalguitartablature.blogspot.com/
E|---------------------------- 0--|------------------ 0-- 3-- 0-- 5|
B|---------------- 1-- 3-- 1-- 1--| 1 3-------------- 3-- 3-- 3-- 5|
G|---------------- 2---------- 0--|-- 0-------------- 0-- 0-- 0-- 5|
D|---------------- 3--------------|--------------------------------|
A|---- 0-- 3-- 5-- 0--------------|-- 0---- 3-- 5 0----------------|
E| 3---------------------------- 3|------------------------------ 3|
http://classicalguitartablature.blogspot.com/
E|-- 3-------------------------- 3|--------------------------------|
B|-- 5-------------------------- 5|-------- 7------ 5---------- 5--|
G|-- 5------------ 2---- 2--------| 5------ 7------ 5--------------|
D|---------------- 2---- 2--------|-------- 7------ 5---- 5--------|
A|-------- 3-- 5-- 0--------------|--------------------------------|
E|-- 5----------------------------| 3 5---- 8--10-- 5--------------|
http://classicalguitartablature.blogspot.com/
E| 0---------------------------- 0|------------ 0---------------- 5|
B| 3-- 3-- 3-- 1-------- 1-- 3-- 1|-- 3-- 1-- 3 1------ 3---- 1-- 5|
G| 2-- 2-- 2 5 2---- 2---------- 2|-- 2-- 2-- 5 2------ 2---- 2-- 5|
D|-------- 4 4--------------------|-- 3-- 3-- 3-------- 3----------|
A|---- 0-- 3-- 5 0----------------|-- 0-- 3-- 5-- 0----------------|
E| 3---------------------------- 3|------------------------------ 3|
http://classicalguitartablature.blogspot.com/
E|-- 3-------------------------- 3|--------------------------------|
B|-- 5-------------------------- 5|-------- 7------ 5---------- 5--|
G|-- 5------------ 2---- 2--------| 5------ 7------ 5--------------|
D|---------------- 2---- 2--------|-------- 7------ 5---- 5--------|
A|-------- 3-- 5-- 0--------------|--------------------------------|
E|-- 5----------------------------| 3 5---- 8--10-- 5--------------|
http://classicalguitartablature.blogspot.com/
E| 0------------------------------|-------------------------- 3-- 5|
B| 3-- 3-- 3-- 1-------- 1-- 3----|-- 1---------- 4------ 1------ 5|
G| 2-- 2-- 2 5 2---- 2------------|-- 2-- 2------ 5-- 5-- 2------ 5|
D|-------- 4 4--------------------|-- 1---------- 4------ 3--------|
A|---- 0-- 3-- 5 0----------------|---------- 5--------------------|
E| 3------------------------------| 1-------------------- 3------ 3|
http://classicalguitartablature.blogspot.com/
E|--------------------------------|--------------------------------|
B|---------- 5------ 3-- 1--------|--------------------------------|
G|---------- 5------ 0-- 0--------|------------------------ 0-- 2--|
D|---------- 5--------------------| 2 2 0 2-- 2 0 2-- 2 0 2--------|
A|-- 0-- 3-- 5-- 0----------------|-- 0-- 3-- 5-- 0----------------|
E|--------------------------------| 3------------------------------|
http://classicalguitartablature.blogspot.com/
E|--------------------------------|--------------------------------|
B|--------------------------------|--------------------------------|
G|------------------------ 0-- 2--|------------------------ 0---- 2|
D|-- 2 0 2-- 2 0 2-- 2 0 2--------|-- 2 0 2-- 2 0 2-- 2 0 2------ 4|
A|-- 0-- 3-- 5-- 0----------------|-- 0-- 3-- 5-- 0----------------|
E| 3------------------------------| 3------------------------------|
http://classicalguitartablature.blogspot.com/
E|--------------------------------|--------------------------------|
B|--------------------------------|--------------------------------|
G|---------------------- 2-- 4----| 5---------- 2---- 0-------- 2 2|
D|-------------------- 5----------| 4------------------ 2----------|
A|-------- 3-- 5 0----------------|-------- 3-- 5-- 0--------------|
E| 3-- 5--------------------------| 3-- 5------------------------ 3|
http://classicalguitartablature.blogspot.com/
E|--------------------------------|--------------------------------|
B|------------------------ 1------|--------------------------------|
G|---- 0-- 2---- 2-- 0-- 2--------| 2-- 0------------------------ 5|
D|------------ 5 4----------------|---- 2---------------- 2------ 5|
A|---- 0-- 3 5-- 0----------------|---- 0-- 3-- 5-- 0--------------|
E|------------------------------ 3|--------------------------------|
http://classicalguitartablature.blogspot.com/
E|--------------------------------|--------------------------------|
B|------------------------ 0------|--------------------------------|
G|-------------------- 0 2--------| 5---------- 2---- 0-------- 2 2|
D|-------------------- 2----------| 4------------------ 2----------|
A|-------- 3 5-- 0----------------|-------- 3-- 5-- 0--------------|
E| 3-- 5--------------------------| 3-- 5------------------------ 3|
http://classicalguitartablature.blogspot.com/
E|--------------------------------|------------------------ 0------|
B|------------------------ 1------|---------------------- 1---- 3--|
G|---- 0-- 2---- 2-- 0-- 2--------| 2-- 0-------------- 2------ 5--|
D|------------ 5 4----------------|---- 2------------------------ 4|
A|---- 0-- 3 5-- 0----------------|---- 0-- 3-- 5 0----------------|
E|------------------------------ 3|--------------------------------|
http://classicalguitartablature.blogspot.com/
E|--------------------------------|--------------------------------|
B|-- 1---------------------- 3-- 3|------ 1------------------------|
G|---- 2---------------- 2------ 5|-- 5-- 2-- 4-- 4---- 2-- 2-- 4--|
D|---- 4---------------- 4--------|-- 4-- 4-- 4-- 4---- 4-- 4-- 4--|
A|---- 0-- 3 5---- 0--------------|-------- 3-- 5-- 0--------------|
E| 3------------------------------| 3-- 5--------------------------|
http://classicalguitartablature.blogspot.com/
E|--------------------------------|------------------------ 0------|
B| 1------------------------------|---------------------- 1---- 3--|
G| 2-- 2------ 0---------------- 2|-------------------- 2------ 5--|
D|---- 2-------- 2------ 2------ 2|------------------------------ 4|
A|---- 0-- 3-- 5-- 0--------------|-------- 3-- 5 0----------------|
E| 3------------------------------| 3-- 5--------------------------|
http://classicalguitartablature.blogspot.com/
E|--------------------------------|--------------------------------|
B|-- 1---------------------- 3-- 3|------ 1-------------------- 1--|
G|---- 2---------------- 2------ 5|-- 5-- 2-- 4-- 4---- 2-- 2-- 4--|
D|---- 4---------------- 4--------|-- 4-- 4-- 4-- 4---- 4-- 4-- 4--|
A|---- 0-- 3 5---- 0--------------|-------- 3-- 5-- 0--------------|
E| 3------------------------------| 3-- 5--------------------------|
http://classicalguitartablature.blogspot.com/
E|---------------------------- 0--|------------------ 0-- 3-- 0-- 5|
B|---------------- 1-- 3-- 1-- 1--| 1 3-------------- 3-- 3-- 3-- 5|
G|---------------- 2---------- 0--|-- 0-------------- 0-- 0-- 0-- 5|
D|---------------- 3--------------|--------------------------------|
A|---- 0-- 3-- 5-- 0--------------|-- 0---- 3-- 5 0----------------|
E| 3---------------------------- 3|------------------------------ 3|
http://classicalguitartablature.blogspot.com/
E|-- 3-------------------------- 3|--------------------------------|
B|-- 5-------------------------- 5|-------- 7------ 5---------- 5--|
G|-- 5------------ 2---- 2--------| 5------ 7------ 5--------------|
D|---------------- 2---- 2--------|-------- 7------ 5---- 5--------|
A|-------- 3-- 5-- 0--------------|--------------------------------|
E|-- 5----------------------------| 3 5---- 8--10-- 5--------------|
http://classicalguitartablature.blogspot.com/
E| 0---------------------------- 0|------------ 0---------------- 5|
B| 3-- 3-- 3-- 1-------- 1-- 3-- 1|-- 3-- 1-- 3 1------ 3---- 1-- 5|
G| 2-- 2-- 2 5 2---- 2---------- 2|-- 2-- 2-- 5 2------ 2---- 2-- 5|
D|-------- 4 4--------------------|-- 3-- 3-- 3-------- 3----------|
A|---- 0-- 3-- 5 0----------------|-- 0-- 3-- 5-- 0----------------|
E| 3---------------------------- 3|------------------------------ 3|
http://classicalguitartablature.blogspot.com/
E|-- 3-------------------------- 3|--------------------------------|
B|-- 5-------------------------- 5|-------- 7------ 5---------- 5--|
G|-- 5------------ 2---- 2--------| 5------ 7------ 5--------------|
D|---------------- 2---- 2--------|-------- 7------ 5---- 5--------|
A|-------- 3-- 5-- 0--------------|--------------------------------|
E|-- 5----------------------------| 3 5---- 8--10-- 5--------------|
http://classicalguitartablature.blogspot.com/
E| 0------------------------------|-------------------------- 3-- 5|
B| 3-- 3-- 3-- 1-------- 1-- 3----|-- 1---------- 4------ 1------ 5|
G| 2-- 2-- 2 5 2---- 2------------|-- 2-- 2------ 5-- 5-- 2------ 5|
D|-------- 4 4--------------------|-- 1---------- 4------ 3--------|
A|---- 0-- 3-- 5 0----------------|---------- 5--------------------|
E| 3------------------------------| 1-------------------- 3--------|
http://classicalguitartablature.blogspot.com/
E|------------------------------ 5|-------------- 0----------------|
B|------------------------------ 7|---- 8---- 7---- 3---- 3--------|
G|---------------------- 5------ 5|---- 5---- 5---- 5-------- 5-- 4|
D|-------- 5------------ 7--------|---- 7---- 7---- 4------------ 4|
A|-- 0-- 0-------------- 5--------|---------------- 5------------ 5|
E|-------- 3 0 3---- 5------------|--------------------------------|
http://classicalguitartablature.blogspot.com/
E|--------------------------------|--------------------------------|
B|-------------- 3---- 1---- 0----| 0-------- 1 0------------------|
G|---- 2---- 4-- 5---- 0---- 2----| 2-------- 2-- 2------ 2--------|
D|-------------- 4---- 2---- 3----| 3-------- 3-- 3---------- 3----|
A|-------------- 5----------------|--------------------------------|
E|-------------------- 0---- 1----|------------------------------ 1|
http://classicalguitartablature.blogspot.com/
E|------------------------------ 5|-------------- 0----------------|
B|-------------------------- 5----|---- 8---- 7-- 1---- 3---- 1----|
G|------ 2------ 2---- 4---- 5----|---------------- 2-- 0---- 0----|
D|-- 3-- 3------ 3---- 5---- 5----|-------------------- 0---- 2-- 2|
A|--------------------------------|---------------- 0-- 2---- 3----|
E|---------------- 1-- 3---- 5----|------------------------------ 3|

E|-------------------------- 0----|---------------------- 3------ 0|
B| 0-------- 0---- 1-- 3-------- 3| 1------------ 1-------------- 1|
G| 2-- 2---- 2---- 2------------ 2|-- 2---- 2-------------------- 2|
D|---------- 2---- 2------------ 2|---- 2-- 2----------------------|
A|--------------------------------|--------------------------------|
E|------------------------------ 2|---------------------------- 1--|
http://classicalguitartablature.blogspot.com/
E|---------- 0---- 3-- 1---- 0----| 0------------------------ 0----|
B|---- 3------ 1------ 1------ 3--| 0-- 0---------- 0---- 3-- 0----|
G|---- 2------ 2-- 2-- 2-------- 2|---------- 2-------------- 1----|
D|---- 3--------------------------|--------------------------------|
A|--------------------------------|--------------------------------|
E|------------------------------ 0|--------------------------------|
http://classicalguitartablature.blogspot.com/
E|------------------ 8-- 5---- 5--|--------------------------------|
B|-- 0-- 0-- 0-- 0---------- 8----|--------------------------------|
G|-- 1-- 1-- 1-- 1-------------- 2|---------------------- 2 4------|
D|---- 0 0---- 0 0-------------- 2|------------------ 5------------|
A|--------------------------------|-- 0-- 3-- 5-- 0----------------|
E| 0---------------------------- 3|--------------------------------|
http://classicalguitartablature.blogspot.com/
E|--------------------------------|--------------------------------|
B|--------------------------------|------------------------ 1------|
G| 5---------- 2---- 0-------- 2 2|---- 0-- 2---- 2-- 0-- 2--------|
D| 4------------------ 2----------|------------ 5 4----------------|
A|-------- 3-- 5-- 0--------------|---- 0-- 3 5-- 0----------------|
E| 3-- 5------------------------ 3|------------------------------ 3|
http://classicalguitartablature.blogspot.com/
E|--------------------------------|--------------------------------|
B|--------------------------------|------------------------ 0------|
G| 2-- 0------------------------ 5|-------------------- 0 2--------|
D|---- 2---------------- 2------ 5|-------------------- 2----------|
A|---- 0-- 3-- 5-- 0--------------|-------- 3 5-- 0----------------|
E|--------------------------------| 3-- 5--------------------------|
http://classicalguitartablature.blogspot.com/
E|--------------------------------|--------------------------------|
B|--------------------------------|------------------------ 1------|
G| 5---------- 2---- 0-------- 2 2|---- 0-- 2---- 2-- 0-- 2--------|
D| 4------------------ 2----------|------------ 5 4----------------|
A|-------- 3-- 5-- 0--------------|---- 0-- 3 5-- 0----------------|
E| 3-- 5------------------------ 3|------------------------------ 3|
http://classicalguitartablature.blogspot.com/
E|------------------------ 0------|--------------------------------|
B|---------------------- 1---- 3--|-- 1---------------------- 3-- 3|
G| 2-- 0-------------- 2------ 5--|---- 2---------------- 2------ 5|
D|---- 2------------------------ 4|---- 4---------------- 4--------|
A|---- 0-- 3-- 5 0----------------|---- 0-- 3 5---- 0--------------|
E|--------------------------------| 3------------------------------|
http://classicalguitartablature.blogspot.com/
E|--------------------------------|--------------------------------|
B|------ 1------------------------| 1------------------------------|
G|-- 5-- 2-- 4-- 4---- 2-- 2-- 4--| 2-- 2------ 0---------------- 2|
D|-- 4-- 4-- 4-- 4---- 4-- 4-- 4--|---- 2-------- 2------ 2------ 2|
A|-------- 3-- 5-- 0--------------|---- 0-- 3-- 5-- 0--------------|
E| 3-- 5--------------------------| 3------------------------------|
http://classicalguitartablature.blogspot.com/
E|------------------------ 0------|--------------------------------|
B|---------------------- 1---- 3--|-- 1---------------------- 3-- 3|
G|-------------------- 2------ 5--|---- 2---------------- 2------ 5|
D|------------------------------ 4|---- 4---------------- 4--------|
A|-------- 3-- 5 0----------------|---- 0-- 3 5---- 0--------------|
E| 3-- 5--------------------------| 3------------------------------|
http://classicalguitartablature.blogspot.com/
E|--------------------------------|---------------------------- 0--|
B|------ 1-------------------- 1--|---------------- 1-- 3-- 1-- 1--|
G|-- 5-- 2-- 4-- 4---- 2-- 2-- 4--|---------------- 2---------- 0--|
D|-- 4-- 4-- 4-- 4---- 4-- 4-- 4--|---------------- 3--------------|
A|-------- 3-- 5-- 0--------------|---- 0-- 3-- 5-- 0--------------|
E| 3-- 5--------------------------| 3---------------------------- 3|
http://classicalguitartablature.blogspot.com/
E|------------------ 0-- 3-- 0-- 5|-- 3-------------------------- 3|
B| 1 3-------------- 3-- 3-- 3-- 5|-- 5-------------------------- 5|
G|-- 0-------------- 0-- 0-- 0-- 5|-- 5------------ 2---- 2--------|
D|--------------------------------|---------------- 2---- 2--------|
A|-- 0---- 3-- 5 0----------------|-------- 3-- 5-- 0--------------|
E|------------------------------ 3|-- 5----------------------------|
http://classicalguitartablature.blogspot.com/
E|--------------------------------| 0---------------------------- 0|
B|-------- 7------ 5---------- 5--| 3-- 3-- 3-- 1-------- 1-- 3-- 1|
G| 5------ 7------ 5--------------| 2-- 2-- 2 5 2---- 2---------- 2|
D|-------- 7------ 5---- 5--------|-------- 4 4--------------------|
A|--------------------------------|---- 0-- 3-- 5 0----------------|
E| 3 5---- 8--10-- 5--------------| 3---------------------------- 3|
http://classicalguitartablature.blogspot.com/
E|------------ 0---------------- 5|-- 3-------------------------- 3|
B|-- 3-- 1-- 3 1------ 3---- 1-- 5|-- 5-------------------------- 5|
G|-- 2-- 2-- 5 2------ 2---- 2-- 5|-- 5------------ 2---- 2--------|
D|-- 3-- 3-- 3-------- 3----------|---------------- 2---- 2--------|
A|-- 0-- 3-- 5-- 0----------------|-------- 3-- 5-- 0--------------|
E|------------------------------ 3|-- 5----------------------------|
http://classicalguitartablature.blogspot.com/
E|--------------------------------| 0------------------------------|
B|-------- 7------ 5---------- 5--| 3-- 3-- 3-- 1-------- 1-- 3----|
G| 5------ 7------ 5--------------| 2-- 2-- 2 5 2---- 2------------|
D|-------- 7------ 5---- 5--------|-------- 4 4--------------------|
A|--------------------------------|---- 0-- 3-- 5 0----------------|
E| 3 5---- 8--10-- 5--------------| 3------------------------------|
http://classicalguitartablature.blogspot.com/
E|-------------------------- 3----|------ 5-- 2------ 8-- 5--10----|
B|-- 1---------- 4------ 1------ 4|------ 4-- 4------ 6-- 6--10----|
G|-- 2-- 2------ 5-- 5-- 2--------|------ 2-- 2------ 7-- 7--10----|
D|-- 1---------- 4------ 3--------|--------------------------------|
A|---------- 5--------------------|-- 2----------------------10----|
E| 1-------------------- 3--------|-------------- 6----------------|
http://classicalguitartablature.blogspot.com/
E|--10--10--10--10------ 3------ 5|-- 3-------------------------- 3|
B|--10--10--10--10-- 5-- 5-- 5-- 5|-- 5-------------------------- 5|
G|--10--10--10--10-- 4-- 4-- 4-- 5|-- 5------------ 2---- 2--------|
D|------------------ 3------ 3----|---------------- 2---- 2--------|
A|--10--10--10--10----------------|-------- 3-- 5-- 0--------------|
E|------------------ 3---------- 3|-- 5----------------------------|
http://classicalguitartablature.blogspot.com/
E|--------------------------------| 0---------------------------- 0|
B|-------- 7------ 5---------- 5--| 3-- 3-- 3-- 1-------- 1-- 3-- 1|
G| 5------ 7------ 5--------------| 2-- 2-- 2 5 2---- 2---------- 2|
D|-------- 7------ 5---- 5--------|-------- 4 4--------------------|
A|--------------------------------|---- 0-- 3-- 5 0----------------|
E| 3 5---- 8--10-- 5--------------| 3---------------------------- 3|
http://classicalguitartablature.blogspot.com/
E|------------ 0---------------- 5|-- 3-------------------------- 3|
B|-- 3-- 1-- 3 1------ 3---- 1-- 5|-- 5-------------------------- 5|
G|-- 2-- 2-- 5 2------ 2---- 2-- 5|-- 5------------ 2---- 2--------|
D|-- 3-- 3-- 3-------- 3----------|---------------- 2---- 2--------|
A|-- 0-- 3-- 5-- 0----------------|-------- 3-- 5-- 0--------------|
E|------------------------------ 3|-- 5----------------------------|
http://classicalguitartablature.blogspot.com/
E|--------------------------------| 0------------------------------|
B|-------- 7------ 5---------- 5--| 3-- 3-- 3-- 1-------- 1-- 3----|
G| 5------ 7------ 5--------------| 2-- 2-- 2 5 2---- 2------------|
D|-------- 7------ 5---- 5--------|-------- 4 4--------------------|
A|--------------------------------|---- 0-- 3-- 5 0----------------|
E| 3 5---- 8--10-- 5--------------| 3------------------------------|
http://classicalguitartablature.blogspot.com/
E|-------------------------- 3-- 5|--------------------------------|
B|-- 1---------- 4------ 1------ 5|---------- 5------ 3-- 1--------|
G|-- 2-- 2------ 5-- 5-- 2------ 5|---------- 5------ 0-- 0--------|
D|-- 1---------- 4------ 3--------|---------- 5--------------------|
A|---------- 5--------------------|-- 0-- 3-- 5-- 0----------------|
E| 1-------------------- 3------ 3|--------------------------------|
http://classicalguitartablature.blogspot.com/
E|--------------------------------|--------------------------------|
B|--------------------------------|--------------------------------|
G|------------------------ 0-- 2--|------------------------ 0-- 2--|
D| 2 2 0 2-- 2 0 2-- 2 0 2--------|-- 2 0 2-- 2 0 2-- 2 0 2--------|
A|-- 0-- 3-- 5-- 0----------------|-- 0-- 3-- 5-- 0----------------|
E| 3------------------------------| 3------------------------------|
http://classicalguitartablature.blogspot.com/
E|--------------------------------|--------------------------------|
B|--------------------------------|--------------------------------|
G|------------------------ 0-- 2--|--------------------------------|
D|-- 2 0 2-- 2 0 2-- 2 0 2---- 2--|--------------------------------|
A|-- 0-- 3-- 5-- 0------------ 0--|--------------------------------|
E| 3------------------------------|--------------------------------|
http://classicalguitartablature.blogspot.com/

0 ความคิดเห็น:

แสดงความคิดเห็น