To celebrate the anniversary, I am giving you (finally...) : iPhone LickByNeck !!!!!!

Walk On By (BASIC)

Dionne Warwick's classic tune fingerstyle chord melody guitar BASIC arrangement played in the key of F.

Walk On By - BASIC ARRANGEMENT played in the key of F.
http://classicalguitartablature.blogspot.com/
E|--------------------------------|--------------------------------|
B|------ 5------------ 5----------|------ 5---------- 5------------|
G|------ 5------------ 5----------|-------- 5-------- 5------------|
D|-------- 5---------- 5----------|-------- 5-------- 5------------|
A|--------------------------------|--------------------------------|
E| 5---------- 5-- 5------ 5-- 5--| 5---------- 5-- 5---- 5---- 5--|
http://classicalguitartablature.blogspot.com/
E|--------------------------------|--------------------------------|
B| 5 5-- 5---- 5 5----------------| 5------------ 3------ 3---- 1--|
G| 5---- 5---- 5 5---- 7 5-- 7----| 5-------- 5-- 5---- 5------ 2--|
D|-------- 5-- 5 5------ 5-- 5----| 5------ 5 5---- 4-- 4------ 2--|
A|--------------------------------|-------------- 5-------------- 0|
E| 5---------- 5 5------ 5-- 5----| 5-------- 5--------------------|
http://classicalguitartablature.blogspot.com/
http://classicalguitartablature.blogspot.com/
E|--------------------------------|---------------- 5-- 5---- 3----|
B|--------------------------------|---------------- 5---------- 3--|
G|------ 2------ 4-- 5-- 4-- 2----|-------- 2------ 5-- 5------ 3--|
D|-- 2---------- 4-- 4---- 4 2----|-- 2-------- 2------------------|
A|---------------- 5------------ 0|---------------- 5--------------|
E|--------------------------------|--------------------------------|
http://classicalguitartablature.blogspot.com/
E|------------------ 5------------|---------------- 5 6-- 5-- 3----|
B|------ 3------ 6---- 6------ 6--| 8-------------- 8 8------ 3----|
G|------ 3------ 3------------ 3--| 5---- 5-------- 5 5---- 5-- 3--|
D|-- 3------ 3-- 3------ 3--------| 5-- 5--------------------------|
A|--------------------------------|--------------------------------|
E| 3-------------- 3--------------| 5---------- 5------------------|
http://classicalguitartablature.blogspot.com/
E|-------------------- 5----------|10--10------ 8------10----------|
B|------ 3-- 3-- 6---- 6---- 6----| 8-- 8------ 8------ 8----------|
G|------ 3-- 3-- 3---------- 3----| 9---------- 9------ 9------ 5--|
D|---- 3---------- 3------ 3------|-------- 7-------------- 7------|
A|--------------------------------| 0-------------- 0--------------|
E| 3-------------- 3--------------|--------------------------------|
http://classicalguitartablature.blogspot.com/
E|-------- 5-- 6-- 5--------------|10--10------ 8----10------------|
B| 6-- 8-- 6-- 6-- 6--------------| 8-- 8------ 8---- 8----------10|
G| 5-- 5-- 5-- 5-- 5------ 5------| 9-- 9------ 9---- 9------10-- 7|
D|-------------------- 7------ 7--|-------- 7------------ 7------ 8|
A| 5-------------- 5--------------| 0-------------- 0--------------|
E|--------------------------------|------------------------------ 6|
http://classicalguitartablature.blogspot.com/
E|---------- 6---------------- 6--| 5-- 3-------- 5-- 3------ 3-- 5|
B|---- 8----------10-- 8----------| 3-- 3-------- 3-- 3-- 6--------|
G|---- 7-------------- 7----------| 3-- 3------ 3 3-- 3------------|
D|---- 8---------- 8-- 8----------|------ 3------------------------|
A|--------------------------------| 3------------------------------|
E|---------------- 6--------------|--------------------------------|
http://classicalguitartablature.blogspot.com/
E|--------------------------------|-------------------------- 5----|
B| 5-------- 5---------- 5------ 5|------------------ 6------ 5-- 5|
G| 5-- 7-- 5 5-- 7-- 5-- 5-- 7-- 7|-- 7-- 5-- 5-- 7---------- 5-- 5|
D|------------------------------ 7|-- 7-- 7-- 7-- 7------ 7--------|
A| 8---------- 8-------- 8--------|--------------------------------|
E|------------------------------ 6|------------ 6------------------|
http://classicalguitartablature.blogspot.com/
E|---------- 5--------------------| 5------------------------ 5----|
B|---------- 5---------- 5--------| 5------------------ 6---- 5-- 5|
G|-- 7-- 5-- 5-- 7-- 5-- 5---- 7--| 7-- 7-- 5 5---- 7-------- 5-- 5|
D|--------------------------------|---- 7-- 7 7---- 7---- 7--------|
A| 8-------- 8---------- 8--------|--------------------------------|
E|--------------------------------| 6---------- 6------------------|
http://classicalguitartablature.blogspot.com/
E|---------- 5--------------------| 5------------------------ 5----|
B|---------- 5---------- 5--------| 5------------------ 6---- 5-- 5|
G|-- 7-- 5-- 5-- 7-- 5-- 5---- 7--| 7-- 7-- 5 5---- 7-------- 5-- 5|
D|--------------------------------|---- 7-- 7 7---- 7---- 7--------|
A| 8-------- 8---------- 8--------|------------------------------ 8|
E|--------------------------------| 6---------- 6------------------|
http://classicalguitartablature.blogspot.com/
E|---------------------- 5------ 0|-- 1-------------- 1------------|
B|---------- 5---------- 5------ 1|-- 1------ 1-- 3-- 1-------- 1--|
G|-- 7-- 5-- 5-- 7-- 5-- 5-- 7-- 2|------ 2---------------- 2------|
D|--------------------------------|--------------------------------|
A|---------- 8---------- 8--------|--------------------------------|
E|------------------------------ 1|--------------------------------|
http://classicalguitartablature.blogspot.com/
E|--------------------------------|--------------------------------|
B| 5 5-- 5---- 5 5----------------| 5------------ 3------ 3---- 1--|
G| 5---- 5---- 5 5---- 7 5-- 7----| 5-------- 5-- 5---- 5------ 2--|
D|-------- 5-- 5 5------ 5-- 5----| 5------ 5 5---- 4-- 4------ 2--|
A|--------------------------------|-------------- 5-------------- 0|
E| 5---------- 5 5------ 5-- 5----| 5-------- 5--------------------|
http://classicalguitartablature.blogspot.com/
E|--------------------------------|---------------- 5-- 5---- 3----|
B|--------------------------------|---------------- 5---------- 3--|
G|------ 2------ 4-- 5-- 4-- 2----|-------- 2------ 5-- 5------ 3--|
D|-- 2---------- 4-- 4---- 4 2----|-- 2-------- 2------------------|
A|---------------- 5------------ 0|---------------- 5--------------|
E|--------------------------------|--------------------------------|
http://classicalguitartablature.blogspot.com/
E|------------------ 5------------|---------------- 5 6-- 5-- 3----|
B|------ 3------ 6---- 6------ 6--| 8-------------- 8 8------ 3----|
G|------ 3------ 3------------ 3--| 5---- 5-------- 5 5---- 5-- 3--|
D|-- 3------ 3-- 3------ 3--------| 5-- 5--------------------------|
A|--------------------------------|--------------------------------|
E| 3-------------- 3--------------| 5---------- 5------------------|
http://classicalguitartablature.blogspot.com/
E|-------------------- 5----------|10--10------ 8------10----------|
B|------ 3-- 3-- 6---- 6---- 6----| 8-- 8------ 8------ 8----------|
G|------ 3-- 3-- 3---------- 3----| 9---------- 9------ 9------ 5--|
D|---- 3---------- 3------ 3------|-------- 7-------------- 7------|
A|--------------------------------| 0-------------- 0--------------|
E| 3-------------- 3--------------|--------------------------------|
http://classicalguitartablature.blogspot.com/
E|-------- 5-- 6-- 5--------------|10--10------ 8----10------------|
B| 6-- 8-- 6-- 6-- 6--------------| 8-- 8------ 8---- 8----------10|
G| 5-- 5-- 5-- 5-- 5------ 5------| 9-- 9------ 9---- 9------10-- 7|
D|-------------------- 7------ 7--|-------- 7------------ 7------ 8|
A| 5-------------- 5--------------| 0-------------- 0--------------|
E|--------------------------------|------------------------------ 6|
http://classicalguitartablature.blogspot.com/
E|---------- 6---------------- 6--| 5-- 3-------- 5-- 3------ 3-- 5|
B|---- 8----------10-- 8----------| 3-- 3-------- 3-- 3-- 6--------|
G|---- 7-------------- 7----------| 3-- 3------ 3 3-- 3------------|
D|---- 8---------- 8-- 8----------|------ 3------------------------|
A|--------------------------------| 3------------------------------|
E|---------------- 6--------------|--------------------------------|
http://classicalguitartablature.blogspot.com/
E|--------------------------------|-------------------------- 5----|
B| 5-------- 5---------- 5------ 5|------------------ 6------ 5-- 5|
G| 5-- 7-- 5 5-- 7-- 5-- 5-- 7-- 7|-- 7-- 5-- 5-- 7---------- 5-- 5|
D|------------------------------ 7|-- 7-- 7-- 7-- 7------ 7--------|
A| 8---------- 8-------- 8--------|--------------------------------|
E|------------------------------ 6|------------ 6------------------|
http://classicalguitartablature.blogspot.com/
E|---------- 5--------------------| 5------------------------ 5----|
B|---------- 5---------- 5--------| 5------------------ 6---- 5-- 5|
G|-- 7-- 5-- 5-- 7-- 5-- 5---- 7--| 7-- 7-- 5 5---- 7-------- 5-- 5|
D|--------------------------------|---- 7-- 7 7---- 7---- 7--------|
A| 8-------- 8---------- 8--------|--------------------------------|
E|--------------------------------| 6---------- 6------------------|
http://classicalguitartablature.blogspot.com/
E|---------- 5--------------------| 5------------------------ 5----|
B|---------- 5---------- 5--------| 5------------------ 6---- 5-- 5|
G|-- 7-- 5-- 5-- 7-- 5-- 5---- 7--| 7-- 7-- 5 5---- 7-------- 5-- 5|
D|--------------------------------|---- 7-- 7 7---- 7---- 7--------|
A| 8-------- 8---------- 8--------|------------------------------ 8|
E|--------------------------------| 6---------- 6------------------|
http://classicalguitartablature.blogspot.com/
E|---------------------- 5------ 3|-- 1---------------- 1----------|
B|---------- 5---------- 5------ 1|-- 1------ 1---- 3 1------------|
G|-- 7-- 5-- 5-- 7-- 5-- 5-- 7-- 2|-------- 2----------------------|
D|--------------------------------|--------------------------------|
A|---------- 8---------- 8--------|--------------------------------|
E|------------------------------ 1|--------------------------------|
http://classicalguitartablature.blogspot.com/

0 ความคิดเห็น:

แสดงความคิดเห็น