To celebrate the anniversary, I am giving you (finally...) : iPhone LickByNeck !!!!!!

The Wedding (Intermediate)

Popular tune fingerstyle chord melody guitar intermediate arrangement played in the key of G.
You need to install the Flash plugin - http://www.webestools.com/

The Wedding played in the key of G.
http://classicalguitartablature.blogspot.com/
E|--------------------------------|--------------------------------|
B|--------------------------------|-- 3 3-- 3-------- 3 3 3 3------|
G|--------------------------------|-- 0 0-- 0-------- 0 0 0 0------|
D|---------------------------- 0--|-- 0 0-- 0-------- 0---- 0-- 0--|
A|--------------------------------|--------------------------------|
E|--------------------------------| 3-------------- 3--------------|
http://classicalguitartablature.blogspot.com/
E|--------------------------------|---------------------------- 0--|
B|-- 3 3-- 3-------- 3 3 3 3------| 3-------- 0-- 1---------- 3-- 3|
G|-- 0 0-- 0-------- 0 0 0 0------| 0-- 0------ 0 0---- 0 5-- 2-- 0|
D|-- 0 0-- 0-------- 0---- 0-- 0--|-- 0-------------- 2-- 4-- 4----|
A|--------------------------------|------------------------ 5 3-- 2|
E| 3-------------- 3--------------| 3------ 1------ 0--------------|
http://classicalguitartablature.blogspot.com/
E|------------------------------ 0|---------------------------- 0--|
B|-------------- 0-------------- 0|------ 5-- 7 8 5---------- 3-- 3|
G|---- 0------ 0 2---- 2------ 2--|---- 0 5-- 5 5-- 4-- 4-- 5---- 0|
D|-- 0------ 0------ 0------ 0----|-- 0-- 7---- 7---- 5-- 4--------|
A|------ 0------------------------|-------- 6------ 5---- 3------ 2|
E|-------------- 3-------- 2------| 0------------------------------|
http://classicalguitartablature.blogspot.com/
E|--------------------------------|---------- 0---------------- 5--|
B|-------------- 0----------------| 3-------- 3 3-- 7------ 7 8 8--|
G|---- 0------ 0 0---- 0 2---- 0--| 2-- 2---- 2 2-- 7-- 7-- 5 5 5--|
D|-- 0------ 0------ 0------ 0 0--|-- 4-------- 4---- 5---- 7 7----|
A|------ 0------------------------| 5------ 3----------------------|
E|-------------- 3-------- 2-- 0--|---------------- 7------ 5------|
http://classicalguitartablature.blogspot.com/
E| 3------------------------------| 0-------- 2 3------------------|
B| 3------------------------------| 0-------- 3 3-- 5------ 5 7 8--|
G| 2-- 2------ 2-- 7-- 7------ 7--| 0-- 0---- 2 2-- 3-- 3-- 6 6 6--|
D|-- 2------ 2------ 5------ 5----|-- 0-------------- 5---- 5 5 5--|
A|---------------- 7------ 6------|--------------------------------|
E| 3------ 2----------------------| 0------ 2------ 3------ 5------|
http://classicalguitartablature.blogspot.com/
E| 7---------- 7-- 5--------------|---------------------------- 0--|
B| 9--------10 8-- 5--------------| 3-------- 0-- 1---------- 3-- 3|
G| 7-- 7---- 8 9-- 5---------- 2--| 0-- 0------ 0 0---- 0 5-- 2-- 0|
D|-- 9------10------ 5------ 1----|-- 0-------------- 2-- 4-- 4----|
A|---------------- 5--------------|------------------------ 5 3-- 2|
E| 7------ 8-- 9------ 0-- 2------| 3------ 1------ 0--------------|
http://classicalguitartablature.blogspot.com/
E|------------------------------ 0|---------------------------- 0--|
B|-------------- 0-------------- 0|------ 5-- 7 8 5---------- 3-- 3|
G|---- 0------ 0 2---- 2------ 2--|---- 0 5-- 5 5-- 4-- 4-- 5---- 0|
D|-- 0------ 0------ 0------ 0----|-- 0-- 7---- 7---- 5-- 4--------|
A|------ 0------------------------|-------- 6------ 5---- 3------ 2|
E|-------------- 3-------- 2------| 0------------------------------|
http://classicalguitartablature.blogspot.com/
E|--------------------------------|---------- 0---------------- 5--|
B|-------------- 0----------------| 3-------- 3 3-- 7------ 7 8 8--|
G|---- 0------ 0 0---- 0 2---- 0--| 2-- 2---- 2 2-- 7-- 7-- 5 5 5--|
D|-- 0------ 0------ 0------ 0 0--|-- 4-------- 4---- 5---- 7 7----|
A|------ 0------------------------| 5------ 3----------------------|
E|-------------- 3-------- 2-- 0--|---------------- 7------ 5------|
http://classicalguitartablature.blogspot.com/
E| 3------------------------------|-------------- 7-------- 5------|
B| 3------------------------------| 8-------- 7 8 8-------- 8------|
G| 2-- 2------ 2-- 7-- 7------ 7--| 7-- 7---- 9 9-- 8-- 8-- 7-- 7--|
D|-- 2------ 2------ 5------ 5----|-- 9------ 9 9---- 7------ 5----|
A|---------------- 7------ 6------|--------------------------------|
E| 3------ 2----------------------|10------ 9------ 8------ 6------|
http://classicalguitartablature.blogspot.com/
E|--------------------------------|-------------------------- 3 5--|
B| 8------------------------ 7 810|------------ 7 3---------- 3 3--|
G| 7-- 7------ 7------ 9---- 5 5--| 7---------- 7 2---- 2---- 2 1--|
D|-- 7------ 7------ 7------ 7 7--| 7-------- 7------ 0------------|
A|------------------------ 6------|--------------------------------|
E| 7------ 8------ 9--------------|101010-- 0------ 1------ 2------|
http://classicalguitartablature.blogspot.com/
E| 7---------- 5------------------|-------------------------- 3 5--|
B| 7---------- 7 8---------- 7 810|------------ 7 3---------- 3 3--|
G| 7-------- 7-- 7---------- 9 9--| 7---------- 7 2---- 2---- 2 1--|
D|---------------- 7-------- 9 9--| 7-------- 7------ 0------------|
A|--------------------------------|--------------------------------|
E| 3 3 3-- 5------ 7 7 7-- 9------|101010-- 0------ 1------ 2------|
http://classicalguitartablature.blogspot.com/
E| 7---------- 5------------------|------------ 2 3----------------|
B| 7---------- 7 8---------- 8 7--| 5-------- 5-- 5---------- 7 5--|
G| 7-------- 7-- 7---------- 9 5--| 7-- 7---- 4---- 2-- 2---- 7 7--|
D|---------------- 7-------- 9 7--|-- 5-------------- 2------ 5 5--|
A|---------------------------- 6--| 7------ 5------ 4--------------|
E| 3 3 3-- 5------ 7 7 7 9--------|---------------------- 7--------|
http://classicalguitartablature.blogspot.com/
E| 2------------------------ 3 2--| 0---------- 2-- 3--------------|
B| 3-- 3-- 5------ 3-------- 3 3--| 0-------- 5---- 2------ 5 7 8--|
G|-- 4---- 4-- 4-- 3-- 3---- 2 2--| 0-- 0---- 2---- 2-- 2-- 6 6 6--|
D|-------- 4 4------ 2------------|-- 0------ 4------ 2---- 5 5 5--|
A|--------------------------------|--------------------------------|
E| 5------ 4------ 3------ 2------| 0------ 2------ 3------ 5------|
http://classicalguitartablature.blogspot.com/
E| 7---------- 7-- 5--------------|---------------------------- 0--|
B| 9--------10 8-- 5--------------| 3-------- 0-- 1---------- 3-- 3|
G| 7-- 7---- 8 9-- 5---------- 2--| 0-- 0------ 0 0---- 0 5-- 2-- 0|
D|-- 9------10------ 5------ 1----|-- 0-------------- 2-- 4-- 4----|
A|---------------- 5--------------|------------------------ 5 3-- 2|
E| 7------ 8-- 9------ 0-- 2------| 3------ 1------ 0--------------|
http://classicalguitartablature.blogspot.com/
E|------------------------------ 0|---------------------------- 0--|
B|-------------- 0-------------- 0|------ 5-- 7 8 5---------- 3-- 3|
G|---- 0------ 0 2---- 2------ 2--|---- 0 5-- 5 5-- 4-- 4-- 5---- 0|
D|-- 0------ 0------ 0------ 0----|-- 0-- 7---- 7---- 5-- 4--------|
A|------ 0------------------------|-------- 6------ 5---- 3------ 2|
E|-------------- 3-------- 2------| 0------------------------------|
http://classicalguitartablature.blogspot.com/
E|--------------------------------|---------- 0---------------- 5--|
B|-------------- 0----------------| 3-------- 3 3-- 7------ 7 8 8--|
G|---- 0------ 0 0---- 0 2---- 0--| 2-- 2---- 2 2-- 7-- 7-- 5 5 5--|
D|-- 0------ 0------ 0------ 0 0--|-- 4-------- 4---- 5---- 7 7----|
A|------ 0------------------------| 5------ 3----------------------|
E|-------------- 3-------- 2-- 0--|---------------- 7------ 5------|
http://classicalguitartablature.blogspot.com/
E| 3------------------------------|-------------- 7-------- 5------|
B| 3------------------------------| 8-------- 7 8 8-------- 8------|
G| 2-- 2------ 2-- 7-- 7------ 7--| 7-- 7---- 9 9-- 8-- 8-- 7-- 7--|
D|-- 2------ 2------ 5------ 5----|-- 9------ 9 9---- 7------ 5----|
A|---------------- 7------ 6------|--------------------------------|
E| 3------ 2----------------------|10------ 9------ 8------ 6------|
http://classicalguitartablature.blogspot.com/
E|--------------------------------|---------- 2 3-- 7------ 5------|
B| 8---------------------------- 8|---------- 1 1--10------ 8-- 8--|
G| 7-- 7------ 7------ 4------ 4--| 5-- 5---- 2 2-- 7-- 7---- 6----|
D|-- 5------ 5------ 4------ 3----|-- 5--------------10------------|
A|--------------------------------|---------------- 9------ 7------|
E| 7------ 6------ 5------ 4------| 5------ 3----------------------|
http://classicalguitartablature.blogspot.com/
E|--------------------------------|------------------------ 3------|
B| 8------------------------------| 8-------------- 7------ 5------|
G| 9-- 9------ 9------ 8------ 7--| 7-- 7------ 5-- 4-- 4-- 4------|
D|-- 9------ 9------ 7------ 6----|-- 6------ 5------ 6------ 2----|
A|--------------------------------|--------------------------------|
E|10------ 9------ 8------ 7------| 6------ 5------ 4------ 3-- 2--|
http://classicalguitartablature.blogspot.com/
E| 7-------------- 5--------------|--------------------------------|
B| 8-------------- 7--------------| 8-------------- 8--------------|
G| 8-- 8-- 7-- 7-- 5-- 5------ 5--| 9-------------- 8--------------|
D|-- 7------ 7------ 7------ 5-- 9|---------------- 7--------------|
A| 8------ 7------ 6------ 5------|--------------------------------|
E|------------------------------ 9|---------------- 8--------------|
http://classicalguitartablature.blogspot.com/
E|--------------------------------|--------------------------------|
B| 8------------------------------|--------------------------------|
G| 7------------------------------|--------------------------------|
D| 7------------------------------|--------------------------------|
A|--------------------------------|--------------------------------|
E| 7------------------------------|--------------------------------|
http://classicalguitartablature.blogspot.com/

0 ความคิดเห็น:

แสดงความคิดเห็น