To celebrate the anniversary, I am giving you (finally...) : iPhone LickByNeck !!!!!!

We've OnlyJust Begun

Classic Carpenters' tune fingerstyle solo guitar arrangement played in the key of Eb.

We've Only Just Begun played in the key of Eb.
http://classicalguitartablature.blogspot.com/
E|--------------------------------|---------------------------- 6--|
B|--------------------------------|------------------ 4-- 4---- 6--|
G| 1------------------ 3----------|---------- 3-- 5------ 6---- 5--|
D|---- 1------ 1------ 3------ 6--|-- 5------ 3-- 5-------- 6------|
A| 1------ 3------ 4------ 5---- 6|------ 5------ 3----------------|
E|--------------------------------|---------------------------- 5--|
http://classicalguitartablature.blogspot.com/
E| 3------------------------ 4-- 6|--------------------------------|
B| 4------------------------ 4-- 3|--------------------------------|
G| 5------------ 1---------- 5----| 3-------------- 7---------- 3 3|
D|---- 5---- 5------ 1------------|---- 3------ 3------ 5---- 3----|
A|------------------------ 6------| 5------ 3----------------------|
E| 4---- 3-------- 1--------------|---------------- 6------ 4---- 3|
http://classicalguitartablature.blogspot.com/
http://classicalguitartablature.blogspot.com/
E|----------------10-- 8---- 6----|------------ 4------------------|
B|---------------- 8-- 6---- 8-- 8|------------ 4-- 4--------------|
G|------------ 3-- 8-- 5---- 6-- 8|---- 8------ 3-- 5------ 6-- 7--|
D|---- 1---- 1--------------------|-- 6---------------- 3-- 5-- 5--|
A|---------------- 8-- 6---- 7-- 8|--------------------------------|
E|-------- 2----------------------|------ 2-------- 4------ 6-- 7--|
http://classicalguitartablature.blogspot.com/
E|------------10--101111---- 8 6--| 3---------- 4------------------|
B|------------12--13-------- 8 8--| 1---------- 4-- 4--------------|
G| 8----------10--12-------- 6 6--| 1---------- 3-- 5--------------|
D|---- 8--------------------------|---- 1-------------- 3-- 5-- 5--|
A|------------------------ 7------|------------------------ 0------|
E| 8------10------11--------------| 1---- 3-------- 4--------------|
http://classicalguitartablature.blogspot.com/
E|--------------------------------|---------------------------- 6--|
B|--------------------------------|------------------ 4-- 4---- 6--|
G| 1------------------ 3----------|---------- 3-- 5------ 6---- 5--|
D|---- 1------ 1------ 3------ 6--|-- 5------ 3-- 5-------- 6------|
A| 1------ 3------ 4------ 5---- 6|------ 5------ 3----------------|
E|--------------------------------|---------------------------- 5--|
http://classicalguitartablature.blogspot.com/
E| 3------------------------ 4-- 6|--------------------------------|
B| 4------------------------ 4-- 3|--------------------------------|
G| 5------------ 1---------- 5----| 3-------------- 7---------- 3 3|
D|---- 5---- 5------ 1------------|---- 3------ 3------ 5---- 3----|
A|------------------------ 6------| 5------ 3----------------------|
E| 4---- 3-------- 1--------------|---------------- 6------ 4---- 3|
http://classicalguitartablature.blogspot.com/
E|----------------10-- 8---- 6----|------------ 4------------------|
B|---------------- 8-- 6---- 8-- 8|------------ 4-- 4--------------|
G|------------ 3-- 8-- 5---- 6-- 8|---- 8------ 3-- 5------ 6-- 7--|
D|---- 1---- 1--------------------|-- 6---------------- 3-- 5-- 5--|
A|---------------- 8-- 6---- 7-- 8|--------------------------------|
E|-------- 2----------------------|------ 2-------- 4------ 6-- 7--|
http://classicalguitartablature.blogspot.com/
E|------------10--101111---- 8 6--| 3---------- 4------------------|
B|------------12--13-------- 8 8--| 1---------- 4-- 4--------------|
G| 8----------10--12-------- 6 6--| 1---------- 3-- 5--------------|
D|---- 8--------------------------|---- 1-------------- 3-- 5-- 5--|
A|------------------------ 7------|------------------------ 0------|
E| 8------10------11--------------| 1---- 3-------- 4--------------|
http://classicalguitartablature.blogspot.com/
E|-------------------------- 6----|--------------------------------|
B|-------------- 1-- 4-- 4-- 7-- 8|--------------------------------|
G| 1-------- 3-- 3-- 3---- 1 7-- 7|------ 7-------- 1--------------|
D|---- 1---- 3-- 3-- 2---- 1------|---- 8------ 8------ 1------ 1--|
A| 1------------------------------| 6------ 5------ 3------ 2------|
E|------ 4-------- 3-- 2-- 1-- 0--|--------------------------------|
http://classicalguitartablature.blogspot.com/
E|--------------------------------|---- 8-------------- 5-------- 0|
B|--------------------------------|---- 8 8---- 5 8---------- 6-- 1|
G|------ 5---- 5-- 7------ 7------|---- 7 7---- 7 5------ 5------ 0|
D|---- 5------ 5-- 5------ 5------|------ 5---- 5-- 7---- 3--------|
A|--------------------------------|--------------------------------|
E| 6------ 5------ 6-- 6-- 7-- 7--| 8---- 7-------- 5---- 4--------|
http://classicalguitartablature.blogspot.com/
E|------ 0------------------------|-- 8-- 3---------- 5------------|
B|---- 3 1------------------------|-- 8-- 5---- 5 8------------ 6--|
G|------ 2---- 2-------------- 5--|-- 7-- 4------ 5-------- 5------|
D|------------ 2------ 2------ 4--|---------------- 7------ 6------|
A|------------------------ 6---- 7|------ 5------------------------|
E| 3------ 2------ 1--------------|---------------- 8------ 6------|
http://classicalguitartablature.blogspot.com/
E| 0------------------------------|---- 7-- 7-- 4------ 9----------|
B| 1------------------------------|---- 7-- 4------12----------10--|
G| 2---- 2------------ 2-- 2------|---- 6-- 4------ 9---- 9--------|
D|---- 2------ 2------ 2-- 1-- 1--|----------------11---- 7--------|
A| 0------------------------------|-------- 6----------------------|
E|-------- 3------ 2------ 1------| 0-------------- 9---- 8--------|
http://classicalguitartablature.blogspot.com/
E| 4---- 4------------------------|---- 7 7-------- 7-- 9----------|
B| 7-- 7-- 5----------------------|---- 5-- 9-- 9--10------ 5-- 7--|
G| 4-- 4-- 6---- 6------------ 3--|---- 4-- 8------ 9------ 6------|
D|---- 6------ 6---- 6-------- 2--|------------------------ 5------|
A|--------------------------------|-------- 9------ 7---- 6--------|
E| 7------ 6------ 5---- 3------ 4|--------------------------------|
http://classicalguitartablature.blogspot.com/
E|--------------------------------|---- 1--------------------------|
B| 9-------------------------- 4 4|---- 4--------------------------|
G|10--10-------- 7---------- 3----| 3-- 3---- 3-------- 1-- 1------|
D|-- 8------ 8------ 6------ 3----| 3-------- 1-------- 1------ 0--|
A|--------------------------------|------------------------------ 6|
E|10------ 8---- 6------ 4--------| 3---- 2-------- 1------ 0------|
http://classicalguitartablature.blogspot.com/
E|---------------------------- 6--| 3------------------------ 4-- 6|
B|------------------ 4-- 4---- 6--| 4------------------------ 4-- 3|
G|---------- 3-- 5------ 6---- 5--| 5------------ 1---------- 5----|
D|-- 5------ 3-- 5-------- 6------|---- 5---- 5------ 1------------|
A|------ 5------ 3----------------|------------------------ 6------|
E|---------------------------- 5--| 4---- 3-------- 1--------------|
http://classicalguitartablature.blogspot.com/
E|--------------------------------|----------------10-- 8---- 6----|
B|--------------------------------|---------------- 8-- 6---- 8-- 8|
G| 3-------------- 7---------- 3 3|------------ 3-- 8-- 5---- 6-- 8|
D|---- 3------ 3------ 5---- 3----|---- 1---- 1--------------------|
A| 5------ 3----------------------|---------------- 8-- 6---- 7-- 8|
E|---------------- 6------ 4---- 3|-------- 2----------------------|
http://classicalguitartablature.blogspot.com/
E|------------ 4------------------|------------10--101111---- 8 6--|
B|------------ 4-- 4--------------|------------12--13-------- 8 8--|
G|---- 8------ 3-- 5------ 6-- 7--| 8----------10--12-------- 6 6--|
D|-- 6---------------- 3-- 5-- 5--|---- 8--------------------------|
A|--------------------------------|------------------------ 7------|
E|------ 2-------- 4------ 6-- 7--| 8------10------11--------------|
http://classicalguitartablature.blogspot.com/
E| 3---------- 4------------------|-------------------------- 6----|
B| 1---------- 4-- 4--------------|-------------- 1-- 4-- 4-- 7-- 8|
G| 1---------- 3-- 5--------------| 1-------- 3-- 3-- 3---- 1 7-- 7|
D|---- 1-------------- 3-- 5-- 5--|---- 1---- 3-- 3-- 2---- 1------|
A|------------------------ 0------| 1------------------------------|
E| 1---- 3-------- 4--------------|------ 4-------- 3-- 2-- 1-- 0--|
http://classicalguitartablature.blogspot.com/
E|--------------------------------|-------------------------- 6----|
B|--------------------------------|-------------- 1-- 4-- 4-- 7-- 8|
G|------ 7-------- 1--------------| 1-------- 3-- 3-- 3---- 1 7-- 7|
D|---- 8------ 8------ 1------ 1--|---- 1---- 3-- 3-- 2---- 1------|
A| 6------ 5------ 3------ 2------| 1------------------------------|
E|--------------------------------|------ 4-------- 3-- 2-- 1-- 0--|
http://classicalguitartablature.blogspot.com/
E|--------------------------------|-------------------------- 6----|
B|--------------------------------|-------------- 1-- 4-- 4-- 7----|
G|------ 7-------- 1--------------| 1-------- 3-- 3-- 3---- 1 7----|
D|---- 8------ 8------ 1------ 1--|---- 1---- 3-- 3-- 2---- 1------|
A| 6------ 5------ 3------ 2------| 1---------------------------- 5|
E|--------------------------------|------ 4-------- 3-- 2-- 1-- 0--|
http://classicalguitartablature.blogspot.com/
E| 3------------------------------|--------------------------------|
B| 3------------------------------|--------------------------------|
G| 4------------------------------|--------------------------------|
D|--------------------------------|--------------------------------|
A|--------------------------------|--------------------------------|
E|--------------------------------|--------------------------------|
http://classicalguitartablature.blogspot.com/

0 ความคิดเห็น:

แสดงความคิดเห็น