To celebrate the anniversary, I am giving you (finally...) : iPhone LickByNeck !!!!!!

Windmills Of Your Mind (BASIC)

A beautiful Michel Legrand's classic tune fingerstyle chord melody guitar BASIC arrangement played in the key of Em.
You need to install the Flash plugin - http://www.webestools.com/

Windmills Of Your Mind - BASIC ARRANGEMENT played in the key of Em
http://classicalguitartablature.blogspot.com/
E|-------------- 3---- 3-- 2 0-- 2|-------------- 2-- 2-- 0--------|
B|-------- 0 0-- 0---- 0-- 0 0-- 0|-------- 0 0-- 0-- 0-------- 4--|
G|-------- 0 0-- 0---- 0-- 0 0-- 2|-------- 2 2-- 2-- 2------------|
D|---- 2--------------------------|---- 1---- 1--------------------|
A| 2------------ 2-------------- 2|-------------- 2----------------|
E|--------------------------------|--------------------------------|
http://classicalguitartablature.blogspot.com/
E| 0---------------------------- 0|-- 0---------- 3-- 3-- 2-- 0----|
B| 0------ 0-- 0-- 1-- 1-- 0 0-- 0|-------- 0-- 0 0-- 0-- 0-- 0----|
G| 0------ 0-- 0-- 0-- 0-- 0 0-- 0|-------- 0-- 0 0-- 0-- 0-- 0----|
D|---- 2---------- 2-- 2-- 2 2----|-------- 2-- 2------------------|
A|--------------------------------|--------------------------------|
E| 0-------------- 0------------ 0|-------------- 0----------------|
http://classicalguitartablature.blogspot.com/
E| 2------------------------------| 2 2------------ 5 5------------|
B| 0------ 0-- 0-- 1-- 1-- 0 0----| 0-- 0 0-- 0---- 7 7---- 8-- 7 8|
G| 2------ 2-- 2-- 2-- 2-- 2 2----| 2-- 2 2-- 2-- 5---------- 5 5--|
D|---- 1---------- 1-- 1---- 1----|------ 1-- 1-------------- 7 7--|
A| 2-------------- 2--------------| 2------------ 6------ 6--------|
E|--------------------------------|--------------------------------|
http://classicalguitartablature.blogspot.com/
E|--------------------------------| 7-- 7--------10----10---- 8 7--|
B|-------- 5 5---- 6 6-- 5-- 5----| 5-- 5---- 5 5-- 9-- 9------ 9 5|
G| 7------ 7 7---- 7 7-- 7-- 7-- 7|---------- 7 7 7-------------- 5|
D|---- 5------------ 6-- 6-- 6----|-------- 6----------------------|
A|--------------------------------|------------------------------ 0|
E| 0------------ 0-------------- 0|-------------- 7------ 7--------|
http://classicalguitartablature.blogspot.com/
E| 8------------------------------| 5 5------------ 8-- 8---- 7 5--|
B|---- 5-------- 5-- 5------------| 5------------------ 5----------|
G|------ 5-- 7 7-- 5 5-- 7-- 7-- 5|---------- 7 7-- 5-- 5 5------ 7|
D|---------------- 5--------------|------ 5------------------------|
A|------------------------------ 5|--------------------------------|
E|---------------- 0--------------|---------------- 5------------ 3|
http://classicalguitartablature.blogspot.com/
E| 7------------------------------| 3 3------------ 7-- 7---- 5----|
B| 7---- 7-------- 3-- 3---- 1 1--| 1-------- 1-- 1 5---------- 8--|
G|-- 7------ 5 5-- 0------ 0---- 0|-------- 0------ 5--------------|
D|-------------- 0------ 0--------|------ 2----------------------10|
A|-------------- 2-------------- 3|-------------- 7------ 7------ 9|
E|--------------------------------|--------------------------------|
http://classicalguitartablature.blogspot.com/
E|--------------------------------|--------------------------------|
B|10------------------------------| 7--------------10--10---- 8 7--|
G| 9------ 9----------------------| 8------ 8------ 8--------------|
D|----10---- 9 9--10--10---- 9 9--|---- 7---- 9 9-- 9---- 9--------|
A|---------------- 9--------------|------------------------------ 1|
E|--------------------------------| 7-------------- 7--------------|
http://classicalguitartablature.blogspot.com/
E| 3-------------- 3-- 3---- 2 0--| 2------------------------------|
B| 2-------- 0 0-- 2-- 2----------| 0-------- 0 0-- 7-- 7-- 5-- 4--|
G| 0------ 0-- 0-- 0--------------| 2------ 2------ 4------------ 0|
D|---- 2---------------- 2--------|---- 1-------- 4------ 4--------|
A|---------------- 1------------ 2|-------------- 6----------------|
E|--------------------------------|------------------------------ 0|
http://classicalguitartablature.blogspot.com/
E| 0------------------------------| 0 0---------- 3-- 3-- 2-- 3-- 5|
B| 0-------- 0 0-- 1-- 1---- 0 0--| 0 0---- 0-- 0 0-- 0-- 0-- 0-- 5|
G|-------- 0------ 0-- 0---- 0 0--| 0------ 0-- 0 0-- 0------ 0-- 5|
D|---- 2---------- 2-- 2 2--------|------ 2------------------------|
A|--------------------------------|--------------------------------|
E|---------------- 0--------------| 0------------ 0-------------- 5|
http://classicalguitartablature.blogspot.com/
E|--------------------------------| 5 5------------------------ 5--|
B|------ 5-------- 5-- 5----------| 5-------------- 7-- 7 8---- 5--|
G|---------- 7 7-- 5-- 5---- 7 7 5|---------- 7 7-- 6-- 5 5---- 5--|
D|---- 5---------- 5---- 5--------|-------------- 5------ 5--------|
A|-------------- 7-------------- 5|------ 5----------------------10|
E|--------------------------------|-------------- 5----------------|
http://classicalguitartablature.blogspot.com/
E| 7------------------------------|10--------------13--13----1210--|
B| 8-------- 8-- 810--10---- 8 8--|12--12----------12--12----1212--|
G| 7------ 7------ 7-- 7---- 7 7--|12--------1212--10------------12|
D|---- 9---------- 9-- 9---- 9 9--|------12------------------------|
A|------------------------------10|--------------------------------|
E|---------------- 7------ 7------|--------------10------10------ 8|
http://classicalguitartablature.blogspot.com/
E|12------------------------------| 9-- 9----------12--12----10 910|
B|12----12-------- 8-- 8---- 7 7--| 7-------- 7 7--11--11-------- 7|
G|----12----1111-- 5--------------| 9------ 9---- 9------ 9------ 7|
D|---------------- 5--------------|--------------------------------|
A|-------------- 7------ 7------ 9|--------------------------------|
E|--------------------------------|-------------- 9-------------- 7|
http://classicalguitartablature.blogspot.com/
E|---------------- 7-- 7----------| 7-- 7---------------------- 7--|
B|---------- 7 7-- 7--------1010--| 5-- 5---- 5 5-- 9-- 9--10------|
G|---------------- 7--------------| 4-------- 4 4-- 7------ 7------|
D|-- 7------------------ 7--------|---------- 6 6-- 9--------------|
A|-------------- 9----------------|--------------------------------|
E|------------------------------ 0|------ 0------ 7-------- 7---- 5|
http://classicalguitartablature.blogspot.com/
E| 8------------------------------| 5-- 5---------------------- 5--|
B| 5-------------- 5-- 5----------| 5-------------- 7-- 7-- 8------|
G| 5------ 5 7 7-- 5-- 5---- 7 7 5|---------- 7 7-- 5-- 5-- 5------|
D|---- 5---------- 5---- 5--------|------ 5------ 5-------- 5------|
A|---------------- 7------------ 5|--------------------------------|
E|--------------------------------|-------------- 5-------------- 3|
http://classicalguitartablature.blogspot.com/
E| 7------------------------------| 3 3------------ 7-- 7---- 5----|
B| 7------ 7------ 3-- 3---- 1 1--| 1-------- 1 1-- 5-------- 5 8--|
G| 7-- 7---- 5 5-- 0------------ 0|-------------- 5------ 5------ 5|
D|---------------- 0---- 0--------|------ 2------------------------|
A|-------------- 2-------------- 3|--------------------------------|
E|--------------------------------|-------------- 0-------------- 2|
http://classicalguitartablature.blogspot.com/
E| 5-------- 3 3-- 2-- 2----------| 3------ 2-- 2------------------|
B| 5-------------- 5---------- 5--| 1-------- 1 1-- 5-- 5-- 4-- 4--|
G|-------- 5------ 2--------------| 2------ 2------ 4--------------|
D|---- 4------------------ 4------|---- 1---------- 7--------------|
A|-------------- 3-------------- 2|-------------- 6----------------|
E|--------------------------------|------------------------------ 0|
http://classicalguitartablature.blogspot.com/
E|-- 0----------------------------|---------------------- 3-- 3----|
B| 0------------------------------|-------------- 0-- 0------------|
G| 0------------------------------|------------ 0------------------|
D|--------------------------------|------ 2------------------------|
A|--------------------------------|-- 2----------------------------|
E|--------------------------------|--------------------------------|
http://classicalguitartablature.blogspot.com/
E| 2-- 0---- 2--------------------| 2-------- 2-- 0----------------|
B|---------- 0-------------- 0 0--|------------------------ 4------|
G|---------- 2-------- 2----------|--------------------------------|
D|-------------- 1----------------|--------------------------------|
A|-------- 2----------------------|--------------------------------|
E|--------------------------------|--------------------------------|
http://classicalguitartablature.blogspot.com/
E|--------------------------------|--------------------------------|
B|---------------------------- 5--|--------------------------------|
G|---------------------------- 6--|--------------------------------|
D|---------------------------- 5--|--------------------------------|
A|--------------------------------|--------------------------------|
E|-------------------------- 0----|--------------------------------|
http://classicalguitartablature.blogspot.com/

0 ความคิดเห็น:

แสดงความคิดเห็น