To celebrate the anniversary, I am giving you (finally...) : iPhone LickByNeck !!!!!!

Windmills Of Your Mind (Intermediate)

A beautiful Michel Legrand's classic tune fingerstyle chord melody guitar intermediate arrangement played in the key of Em.
You need to install the Flash plugin - http://www.webestools.com/

Windmills Of Your Mind - INTERMEDIATE ARRANGEMENT played in the key of Em
http://classicalguitartablature.blogspot.com/
E|-------------- 3---- 3-- 2 0-- 2|-------------- 2-- 2-- 0--------|
B|-------- 0 0-- 0---- 0-- 0 0-- 0|-------- 0 0-- 0-- 0-------- 4--|
G|-------- 0 0-- 0---- 0-- 0 0-- 2|-------- 2 2-- 2-- 2------------|
D|---- 2--------------------------|---- 1---- 1--------------------|
A| 2------------ 2-------------- 2|-------------- 2----------------|
E|--------------------------------|--------------------------------|
http://classicalguitartablature.blogspot.com/
E| 0------------------------------|-------------------------- 2----|
B| 0------------------------------| 5-- 5---------- 8-- 8---- 5 5--|
G| 0-- 0---- 4 4-- 5-- 5---- 4 4--| 7-------- 4 4-- 5-- 5---- 4 4--|
D|---------- 7 7-- 5-------- 5 5--| 5-------- 5 5-- 7--------------|
A|-------- 6---- 5-------- 4------|--------------------------------|
E| 0---------------------------- 7|-------- 6---- 5-------- 3---- 2|
http://classicalguitartablature.blogspot.com/
E| 2------------------------------|--------------------------------|
B| 4-------- 0 0-- 1-- 1----------| 7-- 7---- 0 010----10-- 8-- 7--|
G| 2-------- 2 2-- 2-- 2-- 4-- 4--| 4-------- 0 0 8---- 8-- 5------|
D|---- 4---- 1 1-- 2-- 2-- 7------| 4-------- 2 2 7---- 7-- 7------|
A|---------------------- 6------ 5|------ 3------------------------|
E|-------- 1------ 0--------------|-------------- 7------ 5--------|
http://classicalguitartablature.blogspot.com/
E| 3------------------------------| 7-- 7----------10--10-- 8-- 7--|
B| 5-------- 5 5-- 6-- 6---- 5 5--| 9-------------- 8------ 8-- 6--|
G| 4-------- 2 2-- 7-- 7---- 4 4--| 7-- 7---- 9 9 9-------- 7-- 7--|
D|---- 5---- 4 4-- 6-- 6------ 6--|---------- 8 8------------------|
A|---------------------- 5--------|--------------------------------|
E| 3------ 2------ 0--------------| 9------ 8---- 7------ 6--------|
http://classicalguitartablature.blogspot.com/
E| 8------------------------------|---------------- 8-- 8-- 7-- 5--|
B| 5-------- 3 3-- 5-- 5---- 3 3--|10--10---------- 5-- 5-- 7-- 7--|
G| 5-------- 5 5-- 5-------- 2 2--| 7-- 7---- 7 7-- 5-- 5-- 5-- 5 7|
D|---- 5---- 3 3-- 5-------- 1 110|----------1010------------------|
A|------------------------------ 9|------ 8------ 7-------- 6---- 5|
E| 5---- 4------ 3------ 1--------|--------------------------------|
http://classicalguitartablature.blogspot.com/
E| 7------------------------------| 3-- 3---------- 7-- 7---- 5----|
B| 8-------- 1 1-- 3-- 3---- 1 1--| 1-- 1---- 1 1-- 5-- 5---- 8 8--|
G|---- 7---- 1 1-- 0-------- 0 0 0|---------- 2 2-- 5-- 5---- 5 5--|
D|---------- 3 3-- 0-------- 0 0--|---------- 2 2-------------- 7--|
A|------ 4------ 2-------- 0------|---------------------- 6--------|
E|------------------------------ 3|-------- 2------ 0--------------|
http://classicalguitartablature.blogspot.com/
E| 5---------------------------- 2|---- 2---------- 5-- 5----------|
B| 5-------- 0 0 1---- 1---- 0 0 5|---- 5---- 0 0-- 5-- 5-- 8-- 7--|
G| 4-------- 2 2-- 2-- 2---- 2 2 4|---- 4---- 2 2-- 5-- 5-- 5-- 5--|
D|---- 5---- 4 4-- 1-- 1---- 1 1--|---------- 2 2------ 4-- 7-- 7--|
A| 4------ 3------ 2---- 0--------|------------------------ 6------|
E|--------------------------------| 3------ 2------ 0--------------|
http://classicalguitartablature.blogspot.com/
E| 3-------------- 3-- 3-- 2-- 0--| 2------------ 2---- 2----------|
B| 5-------- 0 0-- 2-- 2-- 2-- 2--| 5-------- 0 0 1---- 1-- 5-- 4--|
G| 3-------- 0 0-- 0-- 0-- 0-- 0--| 4-------- 2 2 2---- 2-- 4-- 4--|
D|---- 5---- 2 2------------------|---- 2---- 2 2---------- 7-- 7--|
A| 4------ 3------ 1------ 0------|------------------------ 6------|
E|--------------------------------| 3------ 2------ 1--------------|
http://classicalguitartablature.blogspot.com/
E| 0---------------------------- 0|-- 0---------- 3-- 3-- 2-- 3----|
B| 0---------------------------- 0|-- 0---- 0-- 0 5-- 5-- 3--------|
G| 0-- 0---- 4 4-- 5-- 5---- 4 4 0|---- 0-- 0-- 0 4-- 4-- 2--------|
D|---------- 7 7-- 5-------- 5 5--|-------- 2-- 2------------------|
A|-------- 6---- 5-------- 4------| 2---- 0------------------------|
E| 0------------------------------|-------------- 3------ 2--------|
http://classicalguitartablature.blogspot.com/
E| 5------------------------------|-------------------------- 3 5--|
B| 5-------- 3 3-- 5-- 5---- 3 3--|10--10---------- 7-- 7---- 4 4--|
G| 5-------- 3 3-- 5-- 5---- 2 2--| 7-------- 7 7-- 5-- 5---- 5 5--|
D|---- 5---- 5 5-- 5-------- 4 4--| 9-------- 5 5-- 5--------------|
A| 7------ 6---- 5-------- 3------|--------------------------------|
E|------------------------------ 7|-------- 6---- 5-------- 4------|
http://classicalguitartablature.blogspot.com/
E|------------------------------10|----10--------13----13--12--10--|
B|12-------- 8 8--10--10---- 8 8--|10--10---- 8 810----10-- 9-- 9--|
G|10-------- 7 7-- 7-- 7---- 5 5--|10--10----101010----10 7---- 7--|
D|----12---- 9 9-- 7-- 7---- 7 7--|---------- 8 8------------------|
A|10---- 8------ 7------ 6--------|--------------------------------|
E|------------------------------10|-------- 9------ 8---- 7--------|
http://classicalguitartablature.blogspot.com/
E|12------------------------------| 9-- 9------------------ 7-- 9--|
B|12-------- 7 7-- 8-- 8---- 7 7--| 9-- 9---- 7 7--11--11-- 7-- 7--|
G|12-------- 8 8-- 7-- 7---- 5 5--| 9-- 9---- 9 9-- 9-- 9-- 6-- 6--|
D|---- 8---- 7 7-- 6-- 6---- 7 7--|----------1111--11--11----------|
A|--------------------------------|11------10------ 9------ 7------|
E| 8------ 7------ 6------ 5------|--------------------------------|
http://classicalguitartablature.blogspot.com/
E|10-------------- 7-- 7---- 5 5--| 7-- 7---------- 4-- 4-------- 7|
B|12-------- 7 7-- 7-- 7---- 3 3--| 5-------- 5 5-- 3-- 3----10--10|
G|11-------- 9 9-- 7-- 7---- 4 4--| 4-------- 4 4-- 4-- 4---- 7-- 7|
D|----12---- 7 7------------------|---------- 2 2------------ 9----|
A|--------------------------------|------------------------ 8------|
E|10------ 8------ 7------ 5------| 4------ 3------ 2--------------|
http://classicalguitartablature.blogspot.com/
E| 8------------------------------|-------------------------- 3 5--|
B| 5-------- 3 3-- 5-- 5---- 3 3--|10--10---------- 7-- 7---- 4 4--|
G| 5-------- 3 3-- 5-- 5---- 2 2--| 7-------- 7 7-- 5-- 5---- 5 5--|
D|---- 5---- 5 5-- 5-------- 4 4--| 9-------- 5 5-- 5--------------|
A|-------- 6---- 5-------- 3------|--------------------------------|
E| 0---------------------------- 7|-------- 6---- 5-------- 4---- 3|
http://classicalguitartablature.blogspot.com/
E| 7------------------------------|---------------- 7-- 7----------|
B| 7-------- 1 1-- 3-- 3---- 1 1--| 8-- 8---------- 8-- 8--10-- 8--|
G| 7-------- 2 2-- 0-- 0---- 0 0--| 5-------- 5 5-- 9-- 9-- 8-- 8--|
D|---- 5---- 1 1-- 0-- 0---- 2 2--| 7------ 5 5 5----------10--10--|
A|------------------------------ 6|-------- 5----------------------|
E|-------- 2------ 1------ 0------|---------------- 9------ 8------|
http://classicalguitartablature.blogspot.com/
E|---------------- 2-- 2---- 0 0--| 3------------------------------|
B|10-------- 8 8-- 5-------- 1 1--| 3-------- 7-- 7 5-- 5-- 4-- 4--|
G| 8-------- 5 5-- 4-- 4---- 2 2--| 2-------- 5 5-- 4-- 4-- 2-- 2--|
D| 7-- 7---- 7 7------------------|---- 1---- 7-- 7 5-- 5-- 4-- 4--|
A|--------------------------------|-------- 6------ 4------ 3------|
E| 7------ 5------ 3---- 2--------| 1------------------------------|
http://classicalguitartablature.blogspot.com/
E|-- 0----------------------------|---------------------- 3-- 3----|
B|-- 0----------------------------|-------------- 0-- 0------------|
G| 0------------------------------|------------ 0------------------|
D|--------------------------------|------ 2------------------------|
A| 2------------------------------|-- 2----------------------------|
E|--------------------------------|--------------------------------|
http://classicalguitartablature.blogspot.com/
E| 2-- 0---- 2--------------------| 2-------- 2-- 0----------------|
B|---------- 0-------------- 0 0--|------------------------ 4------|
G|---------- 2-------- 2----------|--------------------------------|
D|-------------- 1----------------|--------------------------------|
A|-------- 2----------------------|--------------------------------|
E|--------------------------------|--------------------------------|
http://classicalguitartablature.blogspot.com/
E|--------------------------------|--------------------------------|
B|---------------------------- 5--|--------------------------------|
G|---------------------------- 6--|--------------------------------|
D|---------------------------- 5--|--------------------------------|
A|--------------------------------|--------------------------------|
E|-------------------------- 0----|--------------------------------|
http://classicalguitartablature.blogspot.com/

0 ความคิดเห็น:

แสดงความคิดเห็น