To celebrate the anniversary, I am giving you (finally...) : iPhone LickByNeck !!!!!!

You're My Everything (EASY)

Santa Esmerald's classic fingerstyle solo guitar easy arrangement played in the key of Em.

You're My Everything played in the key of Em.
http://classicalguitartablature.blogspot.com/
E|-------------- 0------ 2------ 3|---------------------------- 7--|
B|------------------------------ 0|---------- 0---- 0---------- 6--|
G|--------------------------------| 0-------- 0---- 0---------- 4--|
D|--------------------------------|---- 2-- 1---- 0---- 0----------|
A|--------------------------------|--------------------------------|
E|--------------------------------| 0-------------- 0------ 4------|
http://classicalguitartablature.blogspot.com/
E| 7-- 5-- 5----------------------| 2-------------------------- 5--|
B| 5-- 5-- 5-- 8 8-- 7-- 7---- 5--| 0---------- 0-- 0--------------|
G| 5-- 5-- 5-- 5------ 5 5---- 5--| 0------ 0------ 0------ 0------|
D|---------------- 7-- 7 7---- 7--|---- 0-------------- 0----------|
A| 0-------------- 5--------------|--------------------------------|
E|--------------------------------| 3-------------- 3--------------|
http://classicalguitartablature.blogspot.com/
E| 5-- 3-- 3 2---- 2-- 0-- 0------| 0-------------------- 2---- 3--|
B| 5-- 5---------- 0-- 0-- 0-- 3--| 1---------- 1---------- 1-- 1--|
G| 4-- 4---------- 0-- 0-- 0-- 0--| 0------ 0----------------------|
D|---------------------------- 2--|---- 2-------------- 2----------|
A| 3-------------- 3--------------| 0------------ 0----------------|
E|--------------------------------|--------------------------------|
http://classicalguitartablature.blogspot.com/
E| 0------------------------------|--------------------------------|
B| 3------------ 3-------- 3------| 0------------------------------|
G| 5------ 5---- 5------------ 2--| 0------ 0------------ 0--------|
D|---- 5------ 5------ 5----------|---- 0------ 0------ 0------ 0--|
A| 5-------------- 5--------------|--------------------------------|
E|--------------------------------| 3------------ 3----------------|
http://classicalguitartablature.blogspot.com/
E|---------------------------- 2 3|---------------------------- 7--|
B|---------------------- 5------ 0|---------- 0---- 0---------- 6--|
G|-------- 2---------- 2 2--------| 0-------- 0---- 0---------- 4--|
D|---- 2------ 2------ 4----------|---- 2-- 1---- 0---- 0----------|
A|---------------- 2--------------|--------------------------------|
E| 2------------------------------| 0-------------- 0------ 4------|
http://classicalguitartablature.blogspot.com/
E| 7-- 5-- 5----------------------| 2-------------------------- 5--|
B| 5-- 5-- 5-- 8 8-- 7-- 7---- 5--| 0---------- 0-- 0--------------|
G| 5-- 5-- 5-- 5------ 5 5---- 5--| 0------ 0------ 0------ 0------|
D|---------------- 7-- 7 7---- 7--|---- 0-------------- 0----------|
A| 0-------------- 5--------------|--------------------------------|
E|--------------------------------| 3-------------- 3--------------|
http://classicalguitartablature.blogspot.com/
E| 5-- 3-- 3 2---- 2-- 0-- 0------| 0-------------------- 2---- 3--|
B| 5-- 5---------- 0-- 0-- 0-- 3--| 1---------- 1---------- 1-- 1--|
G| 4-- 4---------- 0-- 0-- 0-- 0--| 0------ 0----------------------|
D|---------------------------- 2--|---- 2-------------- 2----------|
A| 3-------------- 3--------------| 0------------ 0----------------|
E|--------------------------------|--------------------------------|
http://classicalguitartablature.blogspot.com/
E| 0------------------------ 5-- 7|--------------------------------|
B| 3------------ 3-------- 3---- 7|--------------------------------|
G| 5------ 5---- 5----------------| 7------ 7-------------- 7------|
D|---- 5------ 5------ 5----------|---- 9------ 9---- 9-------- 9--|
A| 5-------------- 5--------------|10--------------10--------------|
E|--------------------------------|--------------------------------|
http://classicalguitartablature.blogspot.com/
E|---------------------- 7--------|10---------- 8-- 8--------12--12|
B|---------- 9--10--------10------| 8---------- 8-- 8------------10|
G|------ 7------ 7----------------| 9------ 9-- 9-- 9------ 9----11|
D|-- 9---------------- 9------ 9--|---- 7-------------- 7----------|
A|--------------------------------| 0-------------- 0--------------|
E| 0-------------- 0--------------|------------------------------10|
http://classicalguitartablature.blogspot.com/
E|--10--10------ 8-- 7-- 7------ 8|---------- 7-- 7----------------|
B|--10--10--13-- 7-- 7-- 7--10-- 7|---------- 7-- 7----------------|
G|--11--11--11-- 7-- 7-- 7-- 7-- 7|------ 7-- 7-- 7-------- 7------|
D|----------10-------------- 7----|-- 7---------------- 7------ 7--|
A|-------------- 9--------------10|----------------10--------------|
E|--------------------------------|--------------------------------|
http://classicalguitartablature.blogspot.com/
E|-------------- 2------ 3--------| 7------------------------ 8-- 8|
B| 0---------- 0-- 0------ 0------|10----------10--10------------ 7|
G| 0------ 0----------------------| 9------ 9------ 9---- 9------ 8|
D|---- 2-------------- 2------ 2--|---- 7-------------- 7----------|
A| 3-------------- 3--------------| 9------------------------------|
E|--------------------------------|---------------- 8--------------|
http://classicalguitartablature.blogspot.com/
E|-- 7-- 7------ 5-------------- 3|-------------------- 0-- 3-- 5--|
B|-- 7-- 7--10-- 7-- 8-- 8-- 7-- 0|------------ 0------ 0-- 0-- 0--|
G|-- 8-- 8-- 8-- 5-- 5-- 5-- 5----| 0------ 0---------- 0-- 0-- 0--|
D|---------- 7------ 7-- 7-- 7----|---- 0--------------------------|
A|-------------- 6----------------|--------------------------------|
E| 7------------------------------| 0-------------- 0--------------|
http://classicalguitartablature.blogspot.com/
E| 7---------------------- 7------|10---------- 8-- 8--------12--12|
B| 9---------- 9--10------10------| 8---------- 8-- 8------------10|
G| 7------ 7------ 7--------------| 9------ 9-- 9-- 9------ 9----11|
D|---- 9-------------- 9------ 9--|---- 7-------------- 7----------|
A|--------------------------------| 0-------------- 0--------------|
E| 0-------------- 0--------------|------------------------------10|
http://classicalguitartablature.blogspot.com/
E|--10--10------ 8-- 7-- 7------ 8|---------- 7-- 7----------------|
B|--10--10--13-- 7-- 7-- 7--10-- 7|---------- 7-- 7----------------|
G|--11--11--11-- 7-- 7-- 7-- 7-- 7|------ 7-- 7-- 7-------- 7------|
D|----------10-------------- 7----|-- 7---------------- 7------ 7--|
A|-------------- 9--------------10|----------------10--------------|
E|--------------------------------|--------------------------------|
http://classicalguitartablature.blogspot.com/
E|-------------- 2------ 3--------| 7------------------------ 8-- 8|
B| 0---------- 0-- 0------ 0------|10----------10--10------------ 7|
G| 0------ 0----------------------| 9------ 9------ 9---- 9------ 8|
D|---- 2-------------- 2------ 2--|---- 7-------------- 7----------|
A| 3-------------- 3--------------| 9------------------------------|
E|--------------------------------|---------------- 8--------------|
http://classicalguitartablature.blogspot.com/
E|-- 7-- 7------ 5-------------- 3|------------------------ 5-- 3--|
B|-- 7-- 7--10-- 7-- 8-- 8-- 7-- 5|------------ 5------ 5----------|
G|-- 8-- 8-- 8-- 5-- 5-- 5-- 5-- 4|-------- 4---------- 4----------|
D|---------- 7------ 7-- 7-- 7----|---- 5-------------- 5----------|
A|-------------- 6-------------- 3|---------------- 3--------------|
E| 7------------------------------|--------------------------------|
http://classicalguitartablature.blogspot.com/
E| 2------------------------------| 3------------------------------|
B| 4-------------- 5------ 7------| 5---------- 0-- 0--------------|
G| 2------ 2------ 6------ 5------| 4------ 4-- 2-- 2--------------|
D|---- 4------ 4------ 5-- 7-- 7--|---- 5------ 2-- 1--------------|
A| 2------------------------------|--------------------------------|
E|---------------- 6------ 5------| 3---------- 2-- 1--------------|
http://classicalguitartablature.blogspot.com/

0 ความคิดเห็น:

แสดงความคิดเห็น