To celebrate the anniversary, I am giving you (finally...) : iPhone LickByNeck !!!!!!

You're My Everything (Intermediate)

Santa Esmerald's classic fingerstyle chord melody guitar intermediate arrangement played in the key of Em.

You're My Everything played in the key of Em.
http://classicalguitartablature.blogspot.com/
E|-------------- 0------ 2--------|---------------------------- 7--|
B|------------------------------ 8|---------------------------- 8--|
G|------------------------------ 7|------------ 4-- 4---------- 9--|
D|--------------------------------|---- 5------ 5------ 5----------|
A|--------------------------------| 7------ 6------ 5--------------|
E|--------------------------------|------------------------ 9------|
http://classicalguitartablature.blogspot.com/
E| 7------------------------------| 2------------------------ 5----|
B|10--10--10-- 8-- 8-- 7-- 7-- 5--| 3---------- 0-- 0-------- 6--10|
G| 9-- 9-- 7-- 7-- 5-- 5-- 5-- 5--| 4---------- 2-- 0---------- 4 9|
D|---- 7-- 9------ 7-- 7-- 4-- 4--|---- 4------ 0------ 0----------|
A|--------------------------------|---------------------- 5--------|
E| 8------ 7------ 5------ 4------| 3------ 2------ 0--------------|
http://classicalguitartablature.blogspot.com/
E|--------------------------------|-------------------------- 2 3 0|
B|---- 8 8-- 7-- 7---- 5-- 5 3-- 5|-------------------------- 3 3 1|
G|---- 9 7-- 7---- 7-- 7-- 4-- 4 5|---- 5------ 4------ 2---- 2 2 2|
D|10--10 7-- 7---- 6-- 6-- 3-- 3--|---- 5---- 3------ 2------------|
A|--------------------------------|--------------------------------|
E| 8---- 7-------- 6------ 4------| 5------ 4---- 3-------- 2---- 1|
http://classicalguitartablature.blogspot.com/
E|--------------------------------|--------------------------------|
B|---------------- 3--------------| 0------------------------------|
G|---- 2------ 2-- 3-- 3------ 4--| 0------------------ 1------ 2--|
D|-- 2------ 2------ 5------ 4----|---- 2---- 2------ 0-------- 2--|
A|---------------- 6---- 5--------| 4------ 2------ 1---- 0--------|
E|-------- 0----------------------|--------------------------------|
http://classicalguitartablature.blogspot.com/
E|-------------- 0------ 2--------|---------------------------- 7--|
B|-------------- 1------ 3------ 8|---------------------------- 8--|
G|------ 4-------- 2---- 2------ 7|------------ 4-- 4---------- 9--|
D|-- 3-------- 2---- 2-------- 1--|---- 5------ 5------ 5----------|
A|--------------------------------| 7------ 6------ 5--------------|
E| 4------ 3------ 2------ 1------|------------------------ 9------|
http://classicalguitartablature.blogspot.com/
E| 7------------------------------| 2------------------------ 5----|
B|10--10--10-- 8-- 8-- 7-- 7-- 5--| 3---------- 0-- 0-------- 6--10|
G| 9-- 9-- 7-- 7-- 5-- 5-- 5-- 5--| 4---------- 2-- 0---------- 4 9|
D|---- 7-- 9------ 7-- 7-- 4-- 4--|---- 4------ 0------ 0----------|
A|--------------------------------|---------------------- 5--------|
E| 8------ 7------ 5------ 4------| 3------ 2------ 0--------------|
http://classicalguitartablature.blogspot.com/
E|--------------------------------|-------------------------- 2 3 0|
B|---- 8 8-- 7-- 7---- 5-- 5 3-- 5|-------------------------- 3 3 1|
G|---- 9 7-- 7---- 7-- 7-- 4-- 4 5|---- 5------ 4------ 2---- 2 2 2|
D|10--10 7-- 7---- 6-- 6-- 3-- 3--|---- 5---- 3------ 2------------|
A|--------------------------------|--------------------------------|
E| 8---- 7-------- 6------ 4------| 5------ 4---- 3-------- 2---- 1|
http://classicalguitartablature.blogspot.com/
E|-------------------------- 5-- 7|--------------------------------|
B|---------------- 3-------- 5-- 8|--------------------------------|
G|---- 2------ 2-- 3-- 3---- 5-- 9|---- 9------ 8------ 7------ 7--|
D|-- 2------ 2------ 5------------|-- 9------ 7------ 5------ 5----|
A|---------------- 6---- 5--------|--------------------------------|
E|-------- 0-------------------- 9|-------- 8---- 7-------- 6---- 5|
http://classicalguitartablature.blogspot.com/
E|---------------- 5---- 7------10|------------ 8-- 8----------12--|
B|---------------- 4---- 9------ 8|------------ 6-- 7----------10--|
G|---- 5------ 5-- 2-- 2 7---- 7 9|-- 9-------- 6-- 5-- 5------11--|
D|-- 5------ 5------ 4------ 9----|--------------------------------|
A|---------------------- 8--------| 7------ 6------ 5--------------|
E|-------- 3------ 2--------------|------------------------ 8------|
http://classicalguitartablature.blogspot.com/
E|12--10--10-- 8 8---- 7-- 7-- 5--| 8---------- 7-- 7--------------|
B| 9------ 8-- 8-- 5-- 5-- 5-- 5--|11----------10-- 8--------------|
G| 7------ 7-- 7-- 5-- 5-- 5-- 5--|---- 9------ 7-- 7-- 7----------|
D|---------------------------- 4--|------------------ 9-------- 9--|
A|--------------------------------|10------ 9------ 7--------------|
E| 7------ 6------ 5------ 4------|------------------------10------|
http://classicalguitartablature.blogspot.com/
E|------------------------ 3------| 7-------------- 5---------- 8--|
B|---------------- 7------ 5------|10----------10-- 7---------- 8--|
G|---- 4------ 4-- 5------ 5------| 9---- 9---- 9-- 5---- 5---- 8--|
D|-- 5-------- 5------ 7------ 5--|---- 7------ 7------ 7----10----|
A| 3---- 2------------------------| 9------ 7------ 6--------------|
E|---------------- 5------ 3------|------------------------10------|
http://classicalguitartablature.blogspot.com/
E| 8-- 7-- 7------ 5-- 3-- 3-- 2--|--------------------------------|
B| 7-- 7-- 8--10-- 4-- 4-- 5-- 1--| 8------------------ 5 8----10--|
G|-- 8---- 8-- 8-- 4-- 4-- 4-- 2--| 7---- 7---- 5------ 4 9--------|
D|---------- 7--------------------|-- 5------ 7-------- 5 9--------|
A|--------------------------------| 7------ 6------ 5--------------|
E| 8------ 7------ 5------ 3-- 2--|------------------------ 9------|
http://classicalguitartablature.blogspot.com/
E| 7-------------- 6---- 7------10|------------ 8-- 8----------12--|
B| 9-------------- 7------ 6---- 8|------------ 6-- 7----------10--|
G| 7-- 7------ 7-- 7 7 7-- 4-- 4 9|-- 9-------- 6-- 5-- 5------11--|
D|-- 9------ 9------ 6------ 6----|--------------------------------|
A|--------------------------------| 7------ 6------ 5--------------|
E| 8------ 7------ 6------ 4------|------------------------ 8------|
http://classicalguitartablature.blogspot.com/
E|12--10--10-- 8 8---- 7-- 7-- 5--| 8---------- 7-- 7--------------|
B| 9------ 8-- 8-- 5-- 5-- 5-- 5--|11----------10-- 8--------------|
G| 7------ 7-- 7-- 5-- 5-- 5-- 5--|---- 9------ 7-- 7-- 7----------|
D|---------------------------- 4--|------------------ 9-------- 9--|
A|--------------------------------|10------ 9------ 7--------------|
E| 7------ 6------ 5------ 4------|------------------------10------|
http://classicalguitartablature.blogspot.com/
E|------------------------ 3------| 7-------------- 5---------- 8--|
B|---------------- 7------ 5------|10----------10-- 7---------- 8--|
G|---- 4------ 4-- 5------ 5------| 9---- 9---- 9-- 5---- 5---- 8--|
D|-- 5-------- 5------ 7------ 5--|---- 7------ 7------ 7----10----|
A| 3---- 2------------------------| 9------ 7------ 6--------------|
E|---------------- 5------ 3------|------------------------10------|
http://classicalguitartablature.blogspot.com/
E| 8-- 7-- 7------ 5-- 3-- 3-- 2--|--------------------------------|
B| 7-- 7-- 8--10-- 4-- 4-- 5-- 1--| 8------------------ 5--10-- 8--|
G|-- 8---- 8-- 8-- 4-- 4-- 4-- 2--| 5---- 5------ 5---- 5-- 9------|
D|---------- 7--------------------|-- 9------ 9-------- 5-- 9------|
A|--------------------------------|-------- 6------ 5--------------|
E| 8------ 7------ 5------ 3-- 2--| 0-------------------- 9--------|
http://classicalguitartablature.blogspot.com/
E|--------------------------------| 3------------------------------|
B| 7-------------- 5------ 7------| 6-------- 0---- 0--------------|
G| 8-- 8------ 8-- 7------ 5------| 5---- 2-- 2---- 6--------------|
D|-- 7------ 7-------- 5-- 7-- 7--|------ 2-- 1---- 5--------------|
A|--------------------------------|--------------------------------|
E| 8------ 7------ 6------ 5------| 4-- 3-- 2-- 1-- 0--------------|
http://classicalguitartablature.blogspot.com/

0 ความคิดเห็น:

แสดงความคิดเห็น