To celebrate the anniversary, I am giving you (finally...) : iPhone LickByNeck !!!!!!
0 com

Edelweiss - Sound Of Music

Sound Of Music's tune fingerstyle chord melody guitar BASIC arrangement played in the key of G.

Edelweiss - BASIC ARRANGEMENT played in the key of G
http://classicalguitartablature.blogspot.com/
E|------------------------|------------------------|
B|---------------------- 3|------------------------|
G| 4-------------------- 4|---------------------- 5|
D| 5-------------------- 5|---------------------- 5|
A| 5---- 5------ 5------ 5|------ 5-------- 5------|
E|------------------------|------------------------|
http://classicalguitartablature.blogspot.com/
E|------------------------|------------------------|
B|------------------------| 3----------------------|
G|------------------------| 5----------------------|
D|------------------------| 5----------------------|
A| 5---- 5-------- 5------| 5------ 5------ 5------|
E|------------------------|------------------------|
http://classicalguitartablature.blogspot.com/
E|---------------------- 5|------------------------|
B| 0-------------- 3------| 3-------------- 3------|
G|------------ 0----------| 2---------- 2------ 2--|
D|-------- 0------------ 4|------ 4----------------|
A|------------------------|------------------------|
E| 3----------------------| 2----------------------|
http://classicalguitartablature.blogspot.com/
E| 3----------------------|------------------------|
B| 1-------------- 3------| 1-------------- 1------|
G|------------ 0------ 0--|------------ 0------ 0--|
D|-------- 2--------------|------ 2----------------|
A|------------------------| 3----------------------|
E| 0----------------------|------------------------|
http://classicalguitartablature.blogspot.com/
E|------------------------|------------------------|
B| 0-------------- 0------| 0------ 1------ 3------|
G| 0---------- 0-- 2------| 0-------------- 4------|
D|------ 0------------ 0--|---- 0------ 0 3---- 3--|
A|------------------------|------------------------|
E| 3-------------- 2------| 0-------------- 4------|
http://classicalguitartablature.blogspot.com/
E| 0----------------------|------------------------|
B| 1-------------- 1------| 3-------------- 3------|
G|------------ 0------ 0--| 0---------- 0------ 0--|
D|-------- 2------------ 4|------ 4----------------|
A| 0----------------------| 5----------------------|
E|------------------------|------------------------|
http://classicalguitartablature.blogspot.com/
E|------------------------| 5----------------------|
B| 0-------------- 3------|---------------- 0------|
G| 0---------- 0----------|------------ 0------ 0--|
D|-------- 0---------- 0--|-------- 0--------------|
A|------------------------|------------------------|
E| 3----------------------| 1----------------------|
http://classicalguitartablature.blogspot.com/
E| 3----------------------|------------------------|
B| 1-------------- 3------|------------------------|
G|------------ 0------ 0--| 5---------- 5------ 5--|
D|------ 2----------------|-------- 7------ 7------|
A|------------------------| 6----------------------|
E| 0----------------------|------------------------|
http://classicalguitartablature.blogspot.com/
E|------------------------|-------- 0------ 2------|
B|---------------- 3------| 3-------------- 3------|
G| 4---------- 4----------| 5-------------- 2------|
D|-------- 5--------------|---- 5------------------|
A| 5----------------------| 5----------------------|
E|------------------------|---------------- 2------|
http://classicalguitartablature.blogspot.com/
E| 3----------------------| 3----------------------|
B| 3------------ 3--------|-------------- 3--------|
G| 0---------- 0------ 0--|------------ 0------ 0--|
D|-------- 0--------------|------ 0----------------|
A|------------------------|------------------------|
E| 3----------------------| 3----------------------|
http://classicalguitartablature.blogspot.com/
E| 5----------------------| 2------ 0--------------|
B| 7----------------------| 3------ 3------ 3------|
G| 5------ 5-- 7-- 7------| 2------------------ 2--|
D|---- 7------------------|---- 0------ 0----------|
A| 5----------------------|------------------------|
E|------------------------| 2----------------------|
http://classicalguitartablature.blogspot.com/
E|------------------------| 3-------------------- 0|
B| 0---------- 0-- 3------| 3-------------- 3------|
G| 0------ 0--------------|-- 0-------- 0------ 0--|
D|---- 0-------------- 0--|------ 0----------------|
A|------------------------| 2----------------------|
E| 3----------------------|------------------------|
http://classicalguitartablature.blogspot.com/
E|---------------- 3------| 5-------------- 3------|
B| 1----------------------| 2----------------------|
G| 0---------- 0----------| 2---------- 2----------|
D|------ 2------------ 2--|------ 2------------ 2--|
A| 3----------------------| 4----------------------|
E|------------------------|------------------------|

E|------------------------|------------------------|
B| 7-------------- 7------| 3-------------- 3------|
G|------------ 5------ 5--|------------ 2------ 2--|
D|------ 7----------------|-------- 0--------------|
A| 5----------------------|------------------------|
E|------------------------| 2----------------------|
http://classicalguitartablature.blogspot.com/
E|------------------------| 5----------------------|
B| 0-------------- 3------|---------------- 0------|
G| 0---------- 0----------|------------ 0------ 0--|
D|-------- 0---------- 0--|-------- 0--------------|
A|------------------------|------------------------|
E| 3----------------------| 1----------------------|
http://classicalguitartablature.blogspot.com/
E| 3----------------------|------------------------|
B| 1-------------- 3------|------------------------|
G|------------ 0------ 0--| 5---------- 5------ 5--|
D|------ 2----------------|-------- 7------ 7------|
A|------------------------| 6----------------------|
E| 0----------------------|------------------------|
http://classicalguitartablature.blogspot.com/
E|------------------------|-------- 0------ 2------|
B|---------------- 3------| 3-------------- 3------|
G| 4---------- 4----------| 5-------------- 2------|
D|-------- 5--------------|---- 5------------------|
A| 5----------------------| 5----------------------|
E|------------------------|---------------- 2------|
http://classicalguitartablature.blogspot.com/
E| 3----------------------| 3----------------------|
B| 3------------ 3--------|-------------- 3--------|
G| 0---------- 0------ 0--|------------ 0------ 0--|
D|-------- 0--------------|------ 0----------------|
A|------------------------|------------------------|
E| 3----------------------| 3----------------------|
http://classicalguitartablature.blogspot.com/
E|------------------------| 5----------------------|
B| 0-------------- 3------|---------------- 0------|
G| 0---------- 0----------|------------ 0------ 0--|
D|-------- 0---------- 0--|-------- 0--------------|
A|------------------------|------------------------|
E| 3----------------------| 1----------------------|
http://classicalguitartablature.blogspot.com/
E| 3----------------------|------------------------|
B|-- 1-------------- 3----|------------------------|
G|-- 0---------- 0--------| 0-------- 5------------|
D|---------- 2------------|-------- 7--------------|
A|------------------------|-------- 6--------------|
E|-- 0--------------------|------------------------|
http://classicalguitartablature.blogspot.com/
E|------------------------|------------------------|
B|------------------------|------------------------|
G|------------------------|------------------------|
D|------------------------|------------------------|
A|------------------------|---------------------- 5|
E|------------------------|------------------------|
http://classicalguitartablature.blogspot.com/
E|------------------------|------------------------|
B|-------------------- 3--|-------- 3---------- 5--|
G| 4------------------ 2--|-------- 2---------- 7--|
D| 5------------------ 4--|-------- 2-------- 6----|
A|---------- 4-------- 3--|-------- 2--------------|
E|------------------------|------------------ 6----|
http://classicalguitartablature.blogspot.com/
E|-------------------- 3--|------------------------|
B|-------- 7---------- 6--|------------------------|
G|-------- 5-------- 5----|------------------------|
D|------ 5----------------|-------- 3--------------|
A|------------------------|------------------------|
E|---- 5------------ 4----|------------------------|
http://classicalguitartablature.blogspot.com/
E|-------------- 3--------|------------------------|
B|-------------- 2--------|------------------------|
G|------------ 2----------|------------------------|
D|------------------------|------------------------|
A|------------------------|------------------------|
E|---------- 3------------|------------------------|
http://classicalguitartablature.blogspot.com/
E|------------------------|------------------------|
B|------------------------|------------------------|
G|------------------------|------------------------|
D|------------------------|------------------------|
A|------------------------|------------------------|
E|------------------------|------------------------|
http://classicalguitartablature.blogspot.com/
0 com

Sea Of Love (BASIC)

Classic tune fingerstyle chord melody guitar BASIC arrangement played in the key of C.

Sea Of Love - BASIC Arrangement played in the key of C.
http://classicalguitartablature.blogspot.com/
E|--------------------------------|--------------------------------|
B|------ 1---------------- 1------|-------- 1-------------- 1------|
G|---- 0---- 0-------- 0---- 0----|---- 0---- 0-------- 0---- 0----|
D|-- 2-------- 2---- 2-------- 2--|-- 2-------- 2---- 2-------- 2--|
A| 3-------------- 3------------ 3|-------------- 3----------------|
E|--------------------------------|--------------------------------|
http://classicalguitartablature.blogspot.com/
E| 0------ 0-- 0------------------| 4------ 0-------- 0------------|
B| 1---------- 1---------- 1------| 3------ 3-- 3------------ 3----|
G| 0-- 0-------------- 0---- 0----| 4-- 4------ 4---------- 4-- 4--|
D|-- 2-------------- 2-------- 2--|-- 2---------------- 2----------|
A| 3-------------- 3--------------|--------------------------------|
E|--------------------------------| 0-------------- 0--------------|
http://classicalguitartablature.blogspot.com/
E|------ 0------------------------|------------------------------ 5|
B|------ 1-- 3-- 1------ 1---- 3 4|---- 3------ 3---------- 3------|
G|---- 2---- 2-------- 2-------- 5|------ 5------ 5---- 5---- 5----|
D|-- 3-------- 3---- 3------ 3----|-- 4-------------- 4-------- 4--|
A|------------------------------ 5|---------------- 5--------------|
E| 1------------ 1----------------|--------------------------------|
http://classicalguitartablature.blogspot.com/
E|---- 3---- 3-- 3---- 5----------|--------------------------------|
B| 5-- 5------ 5 5---- 5---- 5----|------ 4---- 3------------------|
G| 4---- 4------ 4------ 4---- 4--|---- 5-------------- 5------ 0--|
D|--------------------------------|-- 4-------------- 4-- 4--------|
A| 3------------ 3----------------| 5-------------- 5--------------|
E|--------------------------------|--------------------------------|
http://classicalguitartablature.blogspot.com/
E|--------------------------------|--------------------------------|
B|---- 1------ 1-------- 3--------|-------- 1-------------- 0------|
G| 2-------- 2-------- 2---- 2----|---- 0---- 0-------- 0---- 0----|
D| 2------ 2-------- 1-------- 1--|-- 2-------- 2---- 3-------- 3--|
A| 3------------------------------| 3------------------------------|
E|---------------- 1--------------|---------------- 3--------------|
http://classicalguitartablature.blogspot.com/
E| 0------ 0-- 0------------------| 4------ 0-------- 0------------|
B| 1---------- 1---------- 1------| 3------ 3-- 3------------ 3----|
G| 0-- 0-------------- 0---- 0----| 4-- 4------ 4---------- 4-- 4--|
D|-- 2-------------- 2-------- 2--|-- 2---------------- 2----------|
A| 3-------------- 3--------------|--------------------------------|
E|--------------------------------| 0-------------- 0--------------|
http://classicalguitartablature.blogspot.com/
E|------ 0------------------------|------------------------------ 5|
B|------ 1-- 3-- 1------ 1---- 3 4|---- 3------ 3---------- 3------|
G|---- 2---- 2-------- 2-------- 5|------ 5------ 5---- 5---- 5----|
D|-- 3-------- 3---- 3------ 3----|-- 4-------------- 4-------- 4--|
A|------------------------------ 5|---------------- 5--------------|
E| 1------------ 1----------------|--------------------------------|
http://classicalguitartablature.blogspot.com/
E|---- 3---- 3-- 3---- 5----------|--------------------------------|
B| 5-- 5------ 5 5---- 5---- 5----|------ 4---- 3------------------|
G| 4---- 4------ 4------ 4---- 4--|---- 5-------------- 5------ 0--|
D|--------------------------------|-- 4-------------- 4-- 4--------|
A| 3------------ 3----------------| 5-------------- 5--------------|
E|--------------------------------|--------------------------------|
http://classicalguitartablature.blogspot.com/
E|--------------------------------|--------------------------------|
B|---- 1------ 1-------- 3--------| 1------ 1------ 1---- 0-- 1----|
G| 2-------- 2-------- 2---- 2----| 0-- 0---- 0---- 0---- 0-- 2----|
D| 2------ 2-------- 1-------- 1--|-- 2-------- 2-------- 0-- 3----|
A| 3------------------------------| 3-------------- 3---- 2---- 0--|
E|---------------- 1--------------|--------------------------------|
http://classicalguitartablature.blogspot.com/
E| 3---------------------- 5------|--------------------------------|
B| 3------ 3---------------- 8----|10 8-------- 8-- 1-- 1---- 1----|
G|---- 4-------------- 7------ 7--| 9--10----10---- 0-- 2---- 2----|
D|-- 3-------------- 5------------|--------10------ 2-- 2---- 2----|
A|--------------------------------| 8------------------------------|
E| 3---------- 5 6 7--------------|---------------- 0---- 1---- 2--|
http://classicalguitartablature.blogspot.com/
E| 3-------------------- 5--------|--------------------------------|
B| 3------ 3---------------- 8----|10 8----------------------------|
G|---- 4-------------- 7------ 7--| 9--10----10--------10----10----|
D|-- 3-------------- 5------------|10------10--10----10----10--10--|
A|--------------------------------| 8-------------- 8--------------|
E| 3-------- 5 6-- 7--------------|--------------------------------|
http://classicalguitartablature.blogspot.com/
E| 0------------------------------| 3------------------------------|
B|-------- 0-------------- 0------| 3------ 3-------------- 6------|
G|---- 0---- 0-------- 0---- 0----|---- 4-------------- 7---- 7----|
D|-- 0-------- 0---- 0-------- 0--|-- 3-------------- 5-- 6---- 6--|
A|--------------------------------|--------------------------------|
E| 0-------------- 0--------------| 3-------- 5 6-- 7--------------|
http://classicalguitartablature.blogspot.com/
E| 0------ 0-- 0------------------| 4------ 0-------- 0------------|
B| 1---------- 1---------- 1------| 3------ 3-- 3------------ 3----|
G| 0-- 0-------------- 0---- 0----| 4-- 4------ 4---------- 4-- 4--|
D|-- 2-------------- 2-------- 2--|-- 2---------------- 2----------|
A| 3-------------- 3--------------|--------------------------------|
E|--------------------------------| 0-------------- 0--------------|
http://classicalguitartablature.blogspot.com/
E|------ 0------------------------|------------------------------ 5|
B|------ 1-- 3-- 1------ 1---- 3 4|---- 3------ 3---------- 3------|
G|---- 2---- 2-------- 2-------- 5|------ 5------ 5---- 5---- 5----|
D|-- 3-------- 3---- 3------ 3----|-- 4-------------- 4-------- 4--|
A|------------------------------ 5|---------------- 5--------------|
E| 1------------ 1----------------|--------------------------------|
http://classicalguitartablature.blogspot.com/
E|---- 3---- 3-- 3---- 5----------|--------------------------------|
B| 5-- 5------ 5 5---- 5---- 5----|------ 4---- 3------------------|
G| 4---- 4------ 4------ 4---- 4--|---- 5-------------- 5------ 0--|
D|--------------------------------|-- 4-------------- 4-- 4--------|
A| 3------------ 3----------------| 5-------------- 5--------------|
E|--------------------------------|--------------------------------|
http://classicalguitartablature.blogspot.com/
E|--------------------------------|------------------------------ 5|
B|---- 1------ 1-------- 3--------|-------- 1-------------- 0------|
G| 2-------- 2-------- 2---- 2----|---- 0---- 0-------- 0---- 0----|
D| 2------ 2-------- 1-------- 1--|-- 2-------- 2---- 3-------- 3--|
A| 3------------------------------| 3------------------------------|
E|---------------- 1--------------|---------------- 3--------------|
http://classicalguitartablature.blogspot.com/
E|---- 3---- 3-- 3---- 5----------|--------------------------------|
B| 5-- 5------ 5 5---- 5---- 5----|------ 4---- 3------------------|
G| 4---- 4------ 4------ 4---- 4--|---- 5-------------- 5------ 0--|
D|--------------------------------|-- 4-------------- 4-- 4--------|
A| 3------------ 3----------------| 5-------------- 5--------------|
E|--------------------------------|--------------------------------|
http://classicalguitartablature.blogspot.com/
E|------------ 0-- 1------ 1 0----|--------------------------------|
B|---- 1---- 3---- 1------ 1-- 3--| 1------------------------------|
G| 2-------------- 2-- 2----------| 0------------------------------|
D| 2------ 2-------- 3------------| 2------------------------------|
A| 3------------------------------| 3-- 2 0------------------------|
E|---------------- 1--------------|---------- 3-- 1---- 0----------|
http://classicalguitartablature.blogspot.com/
E|--------------------------------|--------------------------------|
B|--------------------------------|--------------------------------|
G|--------------------------------|--------------------------------|
D|--------------------------------|--------------------------------|
A|-------- 3----------------------|--------------------------------|
E|--------------------------------|--------------------------------|
http://classicalguitartablature.blogspot.com/
0 com

Fixing A Broken Heart

Indecent Obsession's tune fingerstyle chord melody guitar BASIC arrangement played in the key of C.

Fixing A Broken Heart - Indecent Obsession - BASIC ARRANGEMENT played in the key of C
http://classicalguitartablature.blogspot.com/
E|------ 0-------- 1--------------| 0-------------------- 0---- 0--|
B|------ 1-------- 1------ 3------| 1-------------- 1 3------------|
G|------------------------ 0------|-------- 0-- 0------------------|
D|---- 2------ 2------ 2------ 2--|---- 2--------------------------|
A| 3------------------------------| 3---------------------------- 3|
E|--------------------------------|--------------------------------|
http://classicalguitartablature.blogspot.com/
E|-------- 0----------------------|---------------------- 0--------|
B|-------- 1-- 3---------- 0-- 1--|------------ 1-- 1-- 3---- 6----|
G|--------------------------------|-------- 2---- 0------------ 5--|
D|---- 2-------------- 0----------|---- 2-------- 0------------ 3--|
A|-------------- 2----------------| 0---------------------------- 5|
E|--------------------------------|-------------- 3----------------|
http://classicalguitartablature.blogspot.com/
E|---------------- 0--------------|------------------ 0-- 1-- 3----|
B|---- 6-- 6 6---- 1 3-- 1---- 3--|-------------- 3---------- 1----|
G|---- 5-- 5-- 5-- 0-- 0----------|-------------- 0---------- 0----|
D|---- 3-- 3-- 3------ 2 2--------|---- 0------ 0------------------|
A|-------------- 3----------------| 2---- 0---------------------- 3|
E|--------------------------------|-------------- 3----------------|
http://classicalguitartablature.blogspot.com/
E|------------------ 0------ 0----|-------------- 3---- 1-- 0------|
B|-- 1------ 3--------------------|------------ 1 0---- 0-- 0 6----|
G|-- 0----------------------------|-------- 0---- 0---- 0-- 0-- 5--|
D|------ 2-------------- 0--------|---- 2---------------------- 3--|
A|-------------- 2----------------| 0---------------------------- 5|
E|--------------------------------|-------------- 3----------------|
http://classicalguitartablature.blogspot.com/
E|---------------- 0--------------|--------------------------------|
B|---- 6-- 6 6---- 1 3-- 1---- 3--|-- 1 0------------------ 0 0----|
G|---- 5-- 5-- 5-- 0-- 0------ 0--|------------ 0---------- 0-- 0--|
D|---- 3-- 3-- 3------ 2 2---- 0--|------ 0------------ 0-- 0-- 0--|
A|-------------- 3----------------|--------------------------------|
E|--------------------------------| 3-------------- 3--------------|
http://classicalguitartablature.blogspot.com/
E|------------------ 0------ 0----|-------------- 3----------------|
B|---- 1-- 1-- 1-- 3---------- 1--|------ 1------ 6-- 6-- 5---- 6--|
G|---- 2-- 2-- 2-- 0--------------|------ 0------ 3-- 3-- 3---- 5--|
D|---- 2-- 2-- 2 0-------- 0------|-- 2-------------- 5-- 5---- 7--|
A| 0------------ 2----------------| 3------------ 4----------------|
E|--------------------------------|--------------------------------|
http://classicalguitartablature.blogspot.com/
E|-------------- 0----------------|--------------------------------|
B|---- 6-- 6 6-- 1-- 3-- 1 3-- 1--|------------ 1------------ 1----|
G|---- 5-- 5 5-- 0-- 0-- 0--------|---- 2---------- 2------ 2------|
D|---- 7-- 7-- 7---- 2-- 2--------|-------- 3---------- 3----------|
A| 5------------------------------|--------------------------------|
E|-------------- 0----------------| 1------------------------------|
http://classicalguitartablature.blogspot.com/
E|-------------------- 0-- 1-- 3--|--------------------------------|
B|---- 3-- 3 3---- 3---------- 1--|---------- 1---------------- 0--|
G|-------- 0-- 0-- 0---------- 0--|------ 0-------------- 0--------|
D|-------- 0-- 0-- 0--------------|-- 2-------------- 0------------|
A|--------------------------------| 3------------ 2----------------|
E| 3------------------------------|--------------------------------|
http://classicalguitartablature.blogspot.com/
E|--------10-- 8------------------|------------------------------ 0|
B|---- 8---------------------- 6--|-- 5 3---------------------- 1--|
G| 9------------------ 9------ 5--|------ 5---------------- 0------|
D|------------------------10-- 3--|------------ 3------ 2----------|
A| 0--------------10------------ 5|-------------- 3----------------|
E|--------------------------------|--------------------------------|
http://classicalguitartablature.blogspot.com/
E|------------------ 0---- 1-- 3--|-- 0-- 1---- 3------------ 0----|
B| 0 3---- 1-- 3---- 3---- 3-- 1--|-- 1-- 1-- 0------------------ 8|
G| 0 0---- 0-- 0---- 0---- 0-- 0--|-- 0-- 0---- 0-------- 0------ 7|
D|---- 0-- 0-- 0------------------|------------------ 0---------- 5|
A|--------------------------------| 3------------ 2----------------|
E| 3-------------- 3--------------|--------------------------------|
http://classicalguitartablature.blogspot.com/
E|-- 5-- 6---- 5------------------|------ 0------ 3-- 1-- 0--------|
B|---------- 8-------- 8------ 6--|---------- 6-- 1-- 1-- 1---- 3--|
G|------------ 7------ 6------ 5--|-------------- 0-- 0-- 0---- 0--|
D|-------------------- 5-- 5-- 3--|-- 3------------------------ 0--|
A|------------------------------ 5|-------------- 3----------------|
E| 6-------------- 5--------------|--------------------------------|
http://classicalguitartablature.blogspot.com/
E|------------------ 0-- 1-- 1----|-- 0----------------------------|
B|-------------- 3---------- 1----|-- 1------ 3------ 1------------|
G|-------------- 0---------- 0----|---------- 0------ 0------ 0----|
D|---- 0---- 0-- 0----------------|-------- 2------------ 2--------|
A| 2---- 0------------------------| 3------------ 3-------------- 3|
E|-------------- 3----------------|--------------------------------|
http://classicalguitartablature.blogspot.com/
E|--------------------------------|--------------------------------|
B|---------- 1---------------- 0--|------------ 8------ 6-- 5---- 2|
G|------ 0-------------- 0--------|------ 7------------------ 7-- 0|
D|-- 2-------------- 0------------| 5-- 5------------------------ 2|
A|---------------- 2--------------|--------------------------------|
E|--------------------------------| 6-------------- 6--------------|
http://classicalguitartablature.blogspot.com/
E|------------------ 0------------|------ 5---- 3---- 1------------|
B|------ 2-- 3------------------ 6|-- 8-- 6-- 6-------- 3----------|
G|------ 0-- 0-------------- 0-- 5|-- 5-- 5-- 5--------------------|
D|-- 2------------------ 2------ 7|-- 7------ 7--------------------|
A| 0------------ 0-------------- 5|--------------------------------|
E|--------------------------------|---------------- 1--------------|
http://classicalguitartablature.blogspot.com/
E|------------------ 0---- 1-- 3--|--------------------------------|
B|---- 3 3-- 3-- 3------------ 1--|---------- 1---------------- 0--|
G|---- 0 0---- 0 0------------ 0--|------ 0-------------- 0--------|
D|---- 0 0-- 0-- 0----------------|-- 2-------------- 0------------|
A|--------------------------------| 3------------ 2----------------|
E| 3-------------- 3--------------|--------------------------------|
http://classicalguitartablature.blogspot.com/
E|--------10-- 8------------------|------------------------------ 0|
B|---- 8---------------------- 6--|-- 5 3---------------------- 1--|
G| 9------------------ 9------ 5--|------ 5---------------- 0------|
D|------------------------10-- 3--|------------ 3------ 2----------|
A| 0--------------10------------ 5|-------------- 3----------------|
E|--------------------------------|--------------------------------|
http://classicalguitartablature.blogspot.com/
E|------------------ 0---- 1-- 3--|-- 0-- 1---- 3------------ 0----|
B| 0 3---- 1-- 3---- 3---- 3-- 1--|-- 1-- 1-- 0------------------ 8|
G| 0 0---- 0-- 0---- 0---- 0-- 0--|-- 0-- 0---- 0-------- 0------ 7|
D|---- 0-- 0-- 0------------------|------------------ 0---------- 5|
A|--------------------------------| 3------------ 2----------------|
E| 3-------------- 3--------------|--------------------------------|
http://classicalguitartablature.blogspot.com/
E|-- 5-- 6---- 5------------------|------ 0------ 3-- 1-- 0--------|
B|---------- 8-------- 8------ 6--|---------- 6-- 1-- 1-- 1---- 3--|
G|------------ 7------ 6------ 5--|-------------- 0-- 0-- 0---- 0--|
D|-------------------- 5-- 5-- 3--|-- 3------------------------ 0--|
A|------------------------------ 5|-------------- 3----------------|
E| 6-------------- 5--------------|--------------------------------|
http://classicalguitartablature.blogspot.com/
E|------------------ 0-- 1-- 1----|-- 0----------------------------|
B|-------------- 3---------- 1----|-- 1-------- 3---- 1------------|
G|-------------- 0---------- 0----|------------ 0------------ 0----|
D|---- 0---- 0-- 0----------------|------ 2-------------- 2--------|
A| 2---- 0---------------------- 3|---------------- 3------------ 4|
E|-------------- 3----------------|--------------------------------|
http://classicalguitartablature.blogspot.com/
E|-------------- 3----------------|--------------------------------|
B|---------- 5-- 5-- 6-- 5---- 6--|---- 5------ 3---- 1------------|
G|------ 3------ 3-- 3-- 3---- 5--|---- 5------------ 0-------- 0--|
D|-- 5-------------- 5-- 5---- 3--|-------- 3---- 2------ 2--------|
A|-------------- 4----------------| 5------------------------------|
E|--------------------------------|---------------- 0--------------|
http://classicalguitartablature.blogspot.com/
E|--------------------------------|--------------------------------|
B|------------ 1------------ 0----|-------------------- 1----------|
G|-------- 2---------------- 0----|-------------------- 0----------|
D|---- 3-------------- 0----------| 0---------------- 2------------|
A|--------------------------------|------------------ 3------------|
E| 1-------------- 3--------------|--------------------------------|
http://classicalguitartablature.blogspot.com/
0 com

Girls Just Wanna Have Fun

Cindy Lauper's tune fingerstyle chord melody guitar BASIC arrangement played in the key of C.

Girls Just Wanna Have Fun - Cindy Lauper - BASIC ARRANGEMENT played in the key of C
http://classicalguitartablature.blogspot.com/
E| 1 0---------- 0---- 0---- 0----| 1-- 0--------------------------|
B| 1 1------ 3-- 1---- 1---- 1----| 1-- 1---- 3-- 1------ 3------ 6|
G| 0-- 0---- 0-- 0---- 0---- 0----| 0-------- 0-- 0------ 0------ 5|
D|---------- 2--------------------|---------- 2-- 0------ 0------ 5|
A| 3-------- 3-- 3------------ 3--| 3---- 3---- 3-- 2---- 2--------|
E|--------------------------------|--------------------------------|
http://classicalguitartablature.blogspot.com/
E|--------------------------------|------------------------------ 1|
B|---- 5---------- 5-- 5------ 5--| 6---- 5-------- 1------ 3---- 1|
G|---- 5------ 7-- 5-- 5------ 5--| 5---- 5---- 7-- 2------ 0---- 0|
D|---- 5------ 5-- 5-- 5------ 5--| 5---- 5---- 5-- 3------ 0------|
A| 0---------- 0-- 0---------- 0--| 0---------- 0---------------- 3|
E|--------------------------------|---------------- 1------ 3------|
http://classicalguitartablature.blogspot.com/
E|---- 0-------- 0---- 0----------| 1-- 0--------------------------|
B|---- 1---- 3-- 1---- 1------ 1--| 1-- 1------ 3-- 1---- 3------ 6|
G|---- 0---- 0---- 0-- 0------ 0--| 0---------- 0-- 0---- 0------ 5|
D|---------- 2---------------- 2--|------------ 2-- 0------ 0-- 0 5|
A|---------- 3---- 3---------- 3--| 3---- 3---- 3-- 2---- 2--------|
E|--------------------------------|--------------------------------|
http://classicalguitartablature.blogspot.com/
E|--------------------------------|--------------------------------|
B|---- 5---------- 5-- 5------ 5--| 6---- 5-------- 1------ 3------|
G|---- 5------ 7-- 5-- 5------ 5--| 5---- 5---- 7-- 2------ 0------|
D|---- 5------ 5-- 5-- 5------ 5--| 5---- 5---- 5-- 3------ 0------|
A| 0---------- 0-- 0---------- 0--| 0---------- 0------------------|
E|--------------------------------|---------------- 1------ 3------|
http://classicalguitartablature.blogspot.com/
E|------ 0---- 0------------ 0----| 0-- 0------ 0------ 0------ 0--|
B|------ 1---- 1------------ 1----| 1-- 1------ 1------ 1------ 1--|
G|---------------------- 0-- 0----| 0-- 0------ 0------ 0------ 0--|
D|---- 2-------------- 2----------|--------------------------------|
A| 3------------ 3----------------| 3-------------- 3--------------|
E|--------------------------------|--------------------------------|
http://classicalguitartablature.blogspot.com/
E| 0------------------------------|-- 0-- 0------------------------|
B| 1-- 3 1-- 1-------- 1------ 3--|-- 3-- 3------ 3---- 1----------|
G| 2-- 2 2-- 2-------- 2------ 2--|-- 2---- 2---- 2---- 2----------|
D|---- 2 2-- 2-------- 2------ 2--|-------------- 2---- 2------ 2--|
A| 0-------------- 0--------------| 0-------------- 0------ 0------|
E|--------------------------------|--------------------------------|
http://classicalguitartablature.blogspot.com/
E|---- 3-- 3 3-- 3------ 0 0-- 0--| 0---- 1---- 3-- 3--------------|
B|---- 1-- 1 1-- 1---- 1-- 1-- 1--| 1---- 1---- 1-- 1---------- 3--|
G|---- 2-- 2 2-- 2---- 2-- 2-- 2 2|------ 2---- 2-- 2------ 2------|
D|--------------------------------|-------------------- 3----------|
A|--------------------------------|--------------------------------|
E| 1-------------- 1------------ 1|---------------- 1--------------|
http://classicalguitartablature.blogspot.com/
E| 0------ 0----------------------|------------------------ 0-- 3 0|
B| 1-- 1---- 3-- 3---- 1 0---- 1--|------------ 1------ 3 1------ 1|
G| 2-------- 0-- 0---- 0 0---- 2--|-------- 2-------- 2---------- 2|
D|---------- 0-- 0---- 0 0---- 3--|---- 3-------------- 3----------|
A| 0------------------------------|--------------------------------|
E|---------------- 3--------------| 1-------------- 1--------------|
http://classicalguitartablature.blogspot.com/
E|--------------------------------|-- 3-- 3-- 3 3---- 3-- 3---- 3--|
B|---- 1---- 3------ 1---- 3 1----|-- 1-- 1-- 1 1---- 1-- 1---- 1--|
G|---- 2------ 0---- 0-- 0--------|-- 0-- 0-- 0 0------ 0 0---- 0--|
D|---- 2------ 0---- 0---- 0------|--------------------------------|
A| 0---------------------------- 3|-------------- 3-------------- 3|
E|-------------- 3----------------|--------------------------------|
http://classicalguitartablature.blogspot.com/
E|-- 1-- 0-------------- 0--------|------ 5------------------------|
B|-- 1-- 1-- 3-- 1-- 3-- 1--------|------ 5-------- 8------ 6-- 5--|
G|-- 0-- 0-- 0-- 0----------------|---------------- 5--------------|
D|-------------- 2---------- 2----|---- 5------ 5-- 5-- 5----------|
A|---------------- 3--------------| 0-------------- 0--------------|
E|--------------------------------|--------------------------------|
http://classicalguitartablature.blogspot.com/
E|--------------------------------| 5------ 3-- 3------ 1------ 1--|
B|---- 3-- 1-- 3 5------------ 5--| 5------ 5-- 1------ 1------ 1--|
G|---- 2-- 2-- 2---------- 4------| 5-- 5------ 0---------- 0------|
D|---- 3-- 3---------- 3----------|---------- 2--------------------|
A|--------------------------------| 3-------------- 3--------------|
E| 1-------------- 3--------------|--------------------------------|
http://classicalguitartablature.blogspot.com/
E|---- 0------ 0-------------- 0--|---- 0--------------------------|
B|---- 1------ 0---- 3-------- 1--|---- 1------ 3------ 1-- 0-- 1--|
G|-------- 0-------- 0-------- 2--|---- 2------ 0------ 0------ 2--|
D|---------------------- 0--------|------------ 0-------------- 3--|
A| 3------------ 2----------------| 0------------------------------|
E|--------------------------------|---------------- 3--------------|
http://classicalguitartablature.blogspot.com/
E|---------------------- 0---- 3 0|--------------------------------|
B|-------------------- 3 1------ 1|---- 1---- 3------ 1---- 3-- 1--|
G|------------ 2---------------- 2|---- 2------ 0---- 0-- 0---- 0--|
D|---- 3--------------------------|---- 2------ 0---- 0---- 0-- 2--|
A|--------------------------------| 0------------------------------|
E| 1-------------- 1--------------|-------------- 3----------------|
http://classicalguitartablature.blogspot.com/
E|--------------------------------|--------------------------------|
B|---- 1---------- 1---- 1--------|-------------- 1-- 1---- 0------|
G|---- 0------ 0-- 0---- 0---- 0--|---------- 0-- 0-- 0---- 0------|
D|---- 2------ 2-------- 2---- 2--|---- 2---- 2-- 2-- 2---- 0------|
A| 3---------- 3-- 3------------ 3|---------- 3-- 3-------- 2-- 2--|
E|--------------------------------|--------------------------------|
http://classicalguitartablature.blogspot.com/
E|--------------------------------|--------------------------------|
B|--------------------------------|------------------------ 0------|
G| 2-- 2------ 2---------- 2------|------ 2-------- 2------ 0------|
D| 2---- 2---- 2------ 2------ 2--|------ 2-------- 2-- 2 0---- 0--|
A| 0-------------- 0--------------| 0---------- 0---------- 2------|
E|--------------------------------|--------------------------------|
http://classicalguitartablature.blogspot.com/
E|--------------------------------|--------------------------------|
B| 1---- 1-------- 1-- 1----------|---- 1---------- 1------ 0------|
G| 0---- 0---- 0-- 0-- 0----------|---- 0------ 0-- 0------ 0------|
D| 2---- 2-------- 2---- 2--------|---- 2------ 2------ 2------ 0--|
A| 3-------------- 3-------- 3-- 3|------------ 3-- 3------ 2------|
E|--------------------------------|--------------------------------|
http://classicalguitartablature.blogspot.com/
E|--------------------------------|--------------------------------|
B|--------------------------------|------------------------ 0------|
G| 2-- 2------ 2---------- 2------|------ 2-------- 2------ 0------|
D| 2---- 2---- 2------ 2------ 2--|------ 2-------- 2-- 2 0---- 0--|
A| 0-------------- 0--------------| 0---------- 0---------- 2---- 3|
E|--------------------------------|--------------------------------|
http://classicalguitartablature.blogspot.com/
E|------ 3------ 3-------------- 3|------ 3-------------- 0--------|
B|-- 1-- 1------ 1-- 1------ 1-- 1|------ 1-- 1------ 3------------|
G|-- 0-------------- 0------ 0----|---------- 0------ 0------ 0----|
D|-- 2----------------------------|--------------------------------|
A|---------- 3---------- 3--------|-- 3---------- 2-------------- 0|
E|--------------------------------|--------------------------------|
http://classicalguitartablature.blogspot.com/
E|------ 3-------- 3--------------| 0------ 0----------------------|
B|---- 1 1-------- 1-- 1------ 1--| 1------ 1-- 3-- 3-- 1-- 3-- 1--|
G|---- 2-------------- 2------ 2--| 2---------- 2-- 0-- 0-- 0-- 0--|
D|---- 2--------------------------|---- 3---------- 0-- 0-- 0-- 0--|
A|------------ 0---------- 0------|------------------------------ 3|
E|--------------------------------| 1-------------- 3--------------|
http://classicalguitartablature.blogspot.com/
E|------ 3------ 3-------------- 3|------ 3-------------- 0--------|
B|-- 1-- 1------ 1-- 1------ 1-- 1|------ 1-- 1------ 3------------|
G|-- 0-------------- 0------ 0----|---------- 0------ 0------ 0----|
D|-- 2----------------------------|--------------------------------|
A|---------- 3---------- 3--------|-- 3---------- 2-------------- 0|
E|--------------------------------|--------------------------------|
http://classicalguitartablature.blogspot.com/
E|------ 3-------- 3--------------| 0------ 0-------------------- 1|
B|---- 1 1-------- 1-- 1------ 1--| 1------ 1-- 3-- 3-- 1-- 3-- 1 1|
G|---- 2-------------- 2------ 2--| 2---------- 2-- 0-- 0-- 0-- 0 0|
D|---- 2--------------------------|---- 3---------- 0-- 0-- 0-- 0--|
A|------------ 0---------- 0------|------------------------------ 3|
E|--------------------------------| 1-------------- 3--------------|
http://classicalguitartablature.blogspot.com/
E|---- 0-------- 0---- 0----------| 1-- 0--------------------------|
B|---- 1---- 3-- 1---- 1------ 1--| 1-- 1------ 3-- 1---- 3------ 6|
G|---- 0---- 0---- 0-- 0------ 0--| 0---------- 0-- 0---- 0------ 5|
D|---------- 2---------------- 2--|------------ 2-- 0------ 0-- 0 5|
A|---------- 3---- 3---------- 3--| 3---- 3---- 3-- 2---- 2--------|
E|--------------------------------|--------------------------------|
http://classicalguitartablature.blogspot.com/
E|--------------------------------|------------------------------ 1|
B|---- 5---------- 5-- 5------ 5--| 6---- 5-------- 1------ 3---- 1|
G|---- 5------ 7-- 5-- 5------ 5--| 5---- 5---- 7-- 2------ 0---- 0|
D|---- 5------ 5-- 5-- 5------ 5--| 5---- 5---- 5-- 3------ 0------|
A| 0---------- 0-- 0---------- 0--| 0---------- 0---------------- 3|
E|--------------------------------|---------------- 1------ 3------|
http://classicalguitartablature.blogspot.com/
E|---- 0-------- 0---- 0----------| 1-- 0--------------------------|
B|---- 1---- 3-- 1---- 1------ 1--| 1-- 1------ 3-- 1---- 3------ 6|
G|---- 0---- 0---- 0-- 0------ 0--| 0---------- 0-- 0---- 0------ 5|
D|---------- 2---------------- 2--|------------ 2-- 0------ 0-- 0 5|
A|---------- 3---- 3---------- 3--| 3---- 3---- 3-- 2---- 2--------|
E|--------------------------------|--------------------------------|
http://classicalguitartablature.blogspot.com/
E|--------------------------------|--------------------------------|
B|---- 5---------- 5-- 5------ 5--| 6---- 5-------- 1------ 3------|
G|---- 5------ 7-- 5-- 5------ 5--| 5---- 5---- 7-- 2------ 0------|
D|---- 5------ 5-- 5-- 5------ 5--| 5---- 5---- 5-- 3------ 0------|
A| 0---------- 0-- 0---------- 0--| 0---------- 0------------------|
E|--------------------------------|---------------- 1------ 3------|
http://classicalguitartablature.blogspot.com/
E|--------------------------------|--------------------------------|
B|-- 1----------------------------|--------------------------------|
G| 0------------------------------|--------------------------------|
D| 2------------------------------|--------------------------------|
A| 3------------------------------|--------------------------------|
E|--------------------------------|--------------------------------|
http://classicalguitartablature.blogspot.com/
0 com

What's Up - 4 Non Blondes

4 Non Blondes' tune fingerstyle chord melody guitar BASIC arrangement played in the key of G.

What's Up - 4 Non Blondes - BASIC ARRANGEMENT played in the key of G
http://classicalguitartablature.blogspot.com/
E|--------------------------------|--------------------------------|
B|-------------------- 3 3 3-- 3--|--------------------------------|
G|------------------------------ 0|------ 0------------ 0----------|
D|------------------------------ 0|-------------------- 0------ 0--|
A|--------------------------------|--------------------------------|
E|------------------------------ 3|-------------- 3 3------ 3------|
http://classicalguitartablature.blogspot.com/
E|--------------------------------|--------------------------------|
B|--------------------------------|------------------------ 1------|
G|-------------- 0---------- 0----| 0-------------------- 0-- 0 3 3|
D| 2------ 0 2------ 2-- 0-- 2-- 2| 2------ 2------------ 2--------|
A| 0-------------- 0--------------| 3------------ 3 3--------------|
E|--------------------------------|--------------------------------|
http://classicalguitartablature.blogspot.com/
http://classicalguitartablature.blogspot.com/
E|--------------------------------|--------------------------------|
B|--------------------------------|---- 0 0---- 0-- 0 0-- 3-- 3----|
G| 0------ 0------------ 0--------|---- 0-- 0------ 0 0-- 0------ 2|
D| 0------ 0---------- 0 0--------|---- 0 0 0---- 0 0 0-- 0 0---- 2|
A|--------------------------------|--------------------------------|
E| 3------------ 3 3---------- 3--| 3-------------- 3--------------|
http://classicalguitartablature.blogspot.com/
E|--------------------------------|--------------------------------|
B|---------------- 3 3------ 0----|------------------------------ 0|
G|-- 2-- 2-- 2 0-- 0 0-- 2---- 2--| 0------ 0---------- 0-- 0 0-- 0|
D|-- 2-- 2-- 2 2-------- 2--------| 2------ 2------------ 2--------|
A| 0------------ 0----------------| 3------------ 3 3--------------|
E|--------------------------------|--------------------------------|
http://classicalguitartablature.blogspot.com/
E|--------------------------------|--------------------------------|
B|--------------------------------|---- 0 0---- 0-- 0 0-- 3-- 3----|
G| 0---------------------- 0------|---- 0-- 0------ 0 0-- 0------ 2|
D|------ 0------------ 0------ 0--|---- 0 0 0---- 0 0 0-- 0 0---- 2|
A|--------------------------------|--------------------------------|
E| 3------------ 3 3--------------| 3-------------- 3--------------|
http://classicalguitartablature.blogspot.com/
E|--------------------------------|--------------------------------|
B|---------------- 3 3------ 0----|---------------------------- 0--|
G|-- 2-- 2-- 2 0-- 0 0-- 2---- 2--| 0------ 0-------- 0-- 0-- 0 0--|
D|-- 2-- 2-- 2 2-------- 2--------| 2------ 2---------- 2----------|
A| 0------------ 0----------------| 3------------ 3 3--------------|
E|--------------------------------|--------------------------------|
http://classicalguitartablature.blogspot.com/
E|--------------------------------| 7 7-- 7------------------------|
B|-------------------------- 3 3--| 8-- 8 8-- 8 8 3-- 3-- 1-- 0----|
G|---- 0------ 0---------- 0------| 7-- 7 7 7 7 7 0-- 0-- 0---- 0--|
D|-------- 0---------- 0----------|-------- 9 9 9 0-- 0-- 0--------|
A|--------------------------------|10------------------------------|
E| 3-------------- 3--------------|---------------- 3------ 3------|
http://classicalguitartablature.blogspot.com/
E|---- 7 5------ 7-- 7------------|------ 3 3 3 3-------- 3 3------|
B|---- 5 5------ 5-- 5-- 8-- 5----|---- 1 1 1 1-- 1------ 1 1------|
G| 5 5 5---- 5-- 5-- 5-- 5-- 5 5--|---- 0 0 0 0-- 0------ 0 0-- 2--|
D| 5 5------ 5---------- 5-- 5 5--|---- 2-------------- 2------ 0--|
A| 0-------------- 0--------------| 3-------------- 3--------------|
E|--------------------------------|------------------------------ 3|
http://classicalguitartablature.blogspot.com/
E|--------------------------------| 7 7-- 7------------------------|
B| 0------------------------ 3-- 3| 8-- 8 8-- 8 8 3-- 3-- 1-- 0----|
G|-------- 2---- 2------ 2---- 2--| 7-- 7 7 7 7 7 0-- 0-- 0---- 0--|
D|---- 0------ 0------ 0----------|-------- 9 9 9 0-- 0-- 0--------|
A|--------------------------------|10------------------------------|
E|---------------- 3--------------|---------------- 3------ 3------|
http://classicalguitartablature.blogspot.com/
E|---- 7 5------ 7-- 7------------|-------------------------- 7-- 3|
B|---- 5 5------ 5-- 5-- 8-- 5----|---- 8-- 8-- 8 8----10--10---- 3|
G| 5 5 5---- 5-- 5-- 5-- 5-- 5 5--|---- 9 9 9---------- 9 9------ 0|
D| 5 5------ 5---------- 5-- 5 5--|----10--------------1010--------|
A| 0-------------- 0--------------|--------------------------------|
E|--------------------------------| 8-------------- 8------------ 3|
http://classicalguitartablature.blogspot.com/
E|--------------------------------| 7------------------------------|
B|-------- 3------------------ 3--| 8------ 8------ 3---- 1-- 0----|
G|-------- 0-------------- 0------| 7------ 7------ 0---- 0-- 0----|
D|-------- 0---------- 0----------|------ 9------ 9 0-- 0------ 0--|
A|--------------------------------|10------------------------------|
E| 3------------ 3 3--------------|---------------- 3--------------|
http://classicalguitartablature.blogspot.com/
E| 7---------------------- 5 7----|------------------------ 7-- 3--|
B| 8------ 8-------------- 8 8 8--|------------------10--1010---- 3|
G| 5------ 5------ 5---- 5 5 5----|-- 9-- 9---------- 9-- 9 9---- 0|
D|------ 5------ 5---- 5----------|--10--------------10--10--------|
A| 0-------------- 0--------------|--------------------------------|
E|------------------------------ 8|------------ 8-- 8--------------|
http://classicalguitartablature.blogspot.com/
E|--------------------------------| 7------------------------------|
B|------------------------ 3-- 3--| 8------ 8------ 3---- 1-- 0----|
G|-------- 0-------------- 0-- 0--| 7------ 7------ 0---- 0-- 0----|
D|---- 0-------------- 0-- 0-- 0--|------ 9------ 9 0-- 0------ 0--|
A|--------------------------------|10------------------------------|
E| 3-------------- 3--------------|---------------- 3--------------|
http://classicalguitartablature.blogspot.com/
E| 7------------10--1010----------|------------------10--10--10 3--|
B| 8------ 8---- 8-- 8 8------ 8--|---- 8-- 8-- 8---- 8-- 8-- 8-- 3|
G| 9---- 9-- 9-- 9---- 9-- 9------|-- 9 9-- 9-------- 9-- 9-- 9-- 0|
D|----10--------------10----------|--10----------------------------|
A| 0-------------- 0--------------|--------------------------------|
E|--------------------------------| 8-------------- 8--------------|
http://classicalguitartablature.blogspot.com/
E|--------------------------------|--------------------------------|
B|------------------------ 3-- 3--|---- 0 0 0-- 0-- 0 0-- 3-- 3----|
G|-------- 0-------------- 0-- 0--|--------------------------------|
D|---- 0-------------- 0-- 0-- 0--|-------------- 0----------------|
A|--------------------------------|------------------------------ 0|
E| 3-------------- 3--------------| 3------------------------------|
http://classicalguitartablature.blogspot.com/
E|--------------------------------|--------------------------------|
B|---------------- 3 3------ 0----|--------------------------------|
G| 2-- 2 2-- 2 0-- 0---- 2--------| 0-------- 0------------ 0---- 0|
D| 2-------------- 2--------------| 2-- 2-------- 2---------- 2----|
A|---------------- 0--------------| 3---------------- 3------------|
E|--------------------------------|--------------------------------|
http://classicalguitartablature.blogspot.com/
E|--------------------------------|--------------------------------|
B|--------------------------------|--------------------------------|
G|-- 0---- 3-------- 0---- 0------|---- 0--------------------------|
D|-------------------- 0-------- 0|--------------------------------|
A|--------------------------------|--------------------------------|
E|-------------- 3----------------|--------------------------------|
http://classicalguitartablature.blogspot.com/
0 com

Be My Baby - The Ronettes

The Ronettes' tune fingerstyle chord melody guitar BASIC arrangement played in the key of E.

Be My Baby - The Ronettes - BASIC ARRANGEMENT played in the key of E
http://classicalguitartablature.blogspot.com/
E|--------------------------------|--------------------------------|
B|-------- 0-------------- 0------|------------------------ 0------|
G|-------- 1-------------- 1------|------------------------ 1------|
D|-------- 2-------------- 2------|------------------------ 2------|
A|--------------------------------|--------------------------------|
E| 0---------- 0-- 0--------------| 0-- 0------ 0-- 0--------------|
http://classicalguitartablature.blogspot.com/
E|--------------------------------|--------------------------------|
B|-------- 0------------ 0--------|------------------------ 0------|
G|-------- 1------------ 1--------|------------------------ 1------|
D|-------- 2------------ 2--------|------------------------ 2------|
A|--------------------------------|--------------------------------|
E| 0---------- 0------------------| 0-- 0------ 0-- 0--------------|
http://classicalguitartablature.blogspot.com/
E|--------------------------------|--------------------------------|
B|-------- 5---- 5---- 4---- 4----|------------ 4---- 5------------|
G|-------- 4------ 4-- 4---- 4----|---- 6------ 4-------------- 4--|
D|---- 6------ 6-- 6-- 6---- 6----|---- 6------ 6---------- 6------|
A| 7------------------------------|--------------------------------|
E|---------------- 7--------------| 0------------ 7-------------- 2|
http://classicalguitartablature.blogspot.com/
E|------ 2-------- 2--------------|--------------------------------|
B|------ 2------ 2---- 5------ 4--|--------------------------------|
G|-------------- 2---- 2------ 2--|-------- 2-------------- 2------|
D|-- 2-------- 2------ 2------ 4--|---- 4------ 4------ 4------ 4--|
A|---------------- 4--------------| 2------------------------------|
E|--------------------------------|---------------- 2--------------|
http://classicalguitartablature.blogspot.com/
E|--------------------------------|--------------------------------|
B|-------- 5---- 5---- 4---- 4----|------------ 4---- 5------------|
G|-------- 4------ 4-- 4---- 4----|---- 6------ 4-------------- 4--|
D|---- 6------ 6-- 6-- 6---- 6----|---- 6------ 6---------- 6------|
A| 7------------------------------|--------------------------------|
E|---------------- 7--------------| 0------------ 7-------------- 2|
http://classicalguitartablature.blogspot.com/
E|------ 2-------- 2--------------|--------------------------------|
B|------ 2------ 2---- 5------ 4--|--------------------------------|
G|-------------- 2---- 2------ 2--|-------- 2-------------- 2------|
D|-- 2-------- 2------ 2------ 4--|---- 4------ 4------ 4------ 4--|
A|---------------- 4--------------| 2----------------------------11|
E|--------------------------------|---------------- 2--------------|
http://classicalguitartablature.blogspot.com/
E|--------------------------------|--------------------------------|
B|------ 9------ 8---- 9------10--|-- 9-------- 8---- 9------------|
G|------11------11----11------11--|----11------11------------11----|
D|--10------10--10----10------10--|----10------10--------10--------|
A|------------------------------11|--------------------------------|
E|--------------11----------------|--------------11----------------|
http://classicalguitartablature.blogspot.com/
E|---------------------------- 5--|---- 4--------------------------|
B|------ 9------------ 9------ 6--|---- 6------ 6------------------|
G|------10------12------------ 4--|---- 4------ 6------ 6------ 6--|
D|-- 9-------- 9 9-------- 9------|------------ 6---------- 6------|
A|----------------11--------------| 4------------------------------|
E| 9------------------------------|---------------- 4--------------|
http://classicalguitartablature.blogspot.com/
E|-------------------------- 4----|-- 2----------------------------|
B|------ 7------ 6---- 7---- 2----|---- 2---- 5------ 2------------|
G|------ 9------ 9-- 9------ 3----|-------------------------- 3----|
D|-- 8------ 8-- 8-------- 8------|------ 2-------------- 2--------|
A| 9------------------------------|---------------- 4--------------|
E|-------------- 9-------------- 2|--------------------------------|
http://classicalguitartablature.blogspot.com/
E|--------------------------------|--------------------------------|
B| 4------ 4------ 5-- 5------ 7--|-------- 4------ 5------ 7------|
G| 2------ 2------ 2-- 2------ 4--|---- 4--------------------------|
D| 4------ 4------ 2-- 2------ 4--| 4---------- 4------ 4------ 4--|
A| 2---------- 2-- 4-- 4------ 6--|--------------------------------|
E|--------------------------------|--------------------------------|
http://classicalguitartablature.blogspot.com/
E|--------------------------------|------------------------------ 4|
B|------ 5-------- 4-------- 4----|------------ 9---- 7-------- 7 5|
G|-------- 4------ 4---- 4--------| 6-- 6------ 8-------- 9-- 8-- 6|
D|---- 6---- 6-------- 6----------| 6-- 6------ 9------------------|
A|--------------------------------|--------------------------------|
E| 0-------------- 7--------------| 0---------- 7------------------|
http://classicalguitartablature.blogspot.com/
E|--------------------------------|---------- 4------------------ 4|
B|------ 5-------- 4---------- 4--|------------ 4---- 7-- 5---- 7 5|
G|------ 6---------- 4-- 4------ 6|---- 6------ 4---- 6-- 4--------|
D|---- 6------ 6------ 6-------- 6|---- 6------------ 6-- 6---- 6--|
A| 4------------------------------| 4------------------------------|
E|---------------- 4--------------|-------------- 4----------------|
http://classicalguitartablature.blogspot.com/
E|--------------------------------|------------ 5---- 4-- 2-- 4----|
B|------ 5------ 4---------- 4-- 2|---- 2------ 2---- 2-- 2-- 2----|
G| 2------------ 2------ 2------ 2|---- 2------ 2---- 2-- 2-- 2----|
D|---- 2---- 2-------- 2----------|---- 2--------------------------|
A| 0------------------------------| 0------------------------------|
E|---------------- 0--------------|---------------- 0--------------|
http://classicalguitartablature.blogspot.com/
E| 5-------------- 4--------------| 2------------------------------|
B|------------ 2-------------- 2--|------------ 2-------------- 2--|
G|------ 2---------------- 2------|-------- 2-------------- 2------|
D|---- 2-------------- 2----------|---- 2-------------- 2----------|
A| 2------------------------------| 2------------------------------|
E|---------------- 2--------------|---------------- 2--------------|
http://classicalguitartablature.blogspot.com/
E|--------------------------------|------------------------------ 4|
B|------ 5-------- 4-------- 4----|------------ 9---- 7-------- 7 5|
G|-------- 4------ 4---- 4--------| 6-- 6------ 8-------- 9-- 8-- 6|
D|---- 6---- 6-------- 6----------| 6-- 6------ 9------------------|
A|--------------------------------|--------------------------------|
E| 0-------------- 7--------------| 0---------- 7------------------|
http://classicalguitartablature.blogspot.com/
E|--------------------------------|---------- 4------------------ 4|
B|------ 5-------- 4---------- 4--|------------ 4---- 7-- 5---- 7 5|
G|------ 6---------- 4-- 4------ 6|---- 6------ 4---- 6-- 4--------|
D|---- 6------ 6------ 6-------- 6|---- 6------------ 6-- 6---- 6--|
A| 4------------------------------| 4------------------------------|
E|---------------- 4--------------|-------------- 4----------------|
http://classicalguitartablature.blogspot.com/
E|--------------------------------|------------ 5---- 4-- 2-- 4----|
B|------ 5------ 4---------- 4-- 2|---- 2------ 2---- 2-- 2-- 2----|
G| 2------------ 2------ 2------ 2|---- 2------ 2---- 2-- 2-- 2----|
D|---- 2---- 2-------- 2----------|---- 2--------------------------|
A| 0------------------------------| 0------------------------------|
E|---------------- 0--------------|---------------- 0--------------|
http://classicalguitartablature.blogspot.com/
E| 5-------------- 4--------------| 2------------------------------|
B|------------ 2-------------- 2--|------------ 2-------------- 2--|
G|------ 2---------------- 2------|-------- 2-------------- 2------|
D|---- 2-------------- 2----------|---- 2-------------- 2----------|
A| 2------------------------------| 2------------------------------|
E|---------------- 2--------------|---------------- 2--------------|
http://classicalguitartablature.blogspot.com/
E|--------------------------------|--------------------------------|
B| 0------ 0---------- 0------ 0--|---- 0---- 0---------------- 0 0|
G| 1------ 1---------- 1------ 1--|---- 1---- 1---------------- 1--|
D| 2-------- 2-------- 2---- 2----|---- 2---- 2---------------- 2--|
A|---------------- 2--------------|-------------- 2-- 2------------|
E| 0------------------------------| 0------------------------------|
http://classicalguitartablature.blogspot.com/
E|--------------------------------|--------------------------------|
B|--------------------------------|--------------------------------|
G| 1------------------------------|--------------------------------|
D| 2------------------------------|--------------------------------|
A|--------------------------------|--------------------------------|
E| 0------------------------------|--------------------------------|
http://classicalguitartablature.blogspot.com/