To celebrate the anniversary, I am giving you (finally...) : iPhone LickByNeck !!!!!!

After The Love Has Gone (BASIC)

Earth, Wind And Fire's classic tune fingerstyle chord melody guitar BASIC arrangement played in the key of F.

http://classicalguitartablature.blogspot.com/
After The Love Has Gone- BASIC ARRANGEMENT played in the key of F
http://classicalguitartablature.blogspot.com/
E|-------- 1-- 0------------------|--------------------------------|
B| 1---- 1-------- 1---------- 3--|---------- 1------ 3------------|
G| 2-- 2---------- 2---- 2--------|-- 2-------- 3-- 5-- 3---- 3-- 2|
D|-- 3---------------- 3---- 3----|-- 3 3---------- 5---- 3--------|
A|---------------- 0------------ 1|---------------- 3--------------|
E| 1------------------------------|--------------------------------|
http://classicalguitartablature.blogspot.com/
E|---------- 1 0 1---------- 8 5 1|--------------------------------|
B|------ 1---------------------- 3|------ 3----------------------10|
G|---- 2---------- 5--------------|-- 2------ 2 3-- 5 7---- 5 5-- 9|
D|-- 3------------------ 7--------|-- 3------------ 5---- 5------10|
A|--------------------------------| 1------------------------------|
E| 1-------------- 5--------------|---------------- 8--------------|
http://classicalguitartablature.blogspot.com/
http://classicalguitartablature.blogspot.com/
E|---------------- 8 8 8-------- 5|-------------- 5-- 6 810-- 8-- 5|
B|----------------1111--11---- 8 5|------ 5------ 6------10----11 6|
G|-- 9----------10--1010--10---- 5|---- 5-- 5---- 6------ 9------ 5|
D|--10--10--1010------------------|-- 7-------- 7------------------|
A| 8------------ 8----------------| 8-------------- 0---- 0------ 5|
E|--------------------------------|--------------------------------|
http://classicalguitartablature.blogspot.com/
E|------------ 5------ 5-------- 5|---- 3---- 3-- 5-- 8------ 8 8 8|
B| 8 6---- 6 8 6---- 6---- 6 8-- 3|---- 3 6-- 3-- 6-- 6 6--------10|
G|-- 5-------- 7-- 7------------ 3|---- 3 3-- 3-- 7-- 7 7 7------ 9|
D|-- 7-- 7------------------------|------ 3------------------------|
A|--------------------------------|--------------------------------|
E|-------------- 6----------------| 3-------------- 8--------------|
http://classicalguitartablature.blogspot.com/
E|-------------- 8-- 8 8-------- 5|-------------- 5-- 6 810-- 8-- 5|
B|10----10------11--111111---- 8 5|------ 5------ 6------10----11 6|
G|---- 9--------10--101010--10-- 5|---- 5-- 5---- 6------ 9------ 5|
D|--10----1010----------11--------|-- 7-------- 7------------------|
A| 8------------ 8----------------| 8-------------- 0---- 0------ 5|
E|--------------------------------|--------------------------------|
http://classicalguitartablature.blogspot.com/
E|------------ 5------ 5-------- 5|---- 3---- 3 5---- 8 8----------|
B| 8 6---- 6 8 6---- 6---- 6 8-- 3|---- 3 6-- 3-- 6---- 6---- 6----|
G|-- 5-------- 7-- 7------------ 3|---- 3 3-- 3-- 7-- 7 7 7---- 7--|
D|-- 7-- 7------------------------|------ 3------------------------|
A|--------------------------------|--------------------------------|
E|-------------- 6----------------| 3-------------- 8--------------|
http://classicalguitartablature.blogspot.com/
E|-------------------- 5 5--------|-------- 3-- 5-------- 7------ 7|
B| 6-- 6-- 6-- 3 6-- 8 6 6---- 6 6|---- 6-- 6--10--------10------ 5|
G| 5-- 5---- 5-- 5-- 5 5 5-- 5----|-- 5-- 3 3-- 3 9-- 9-- 8------ 4|
D| 3-- 3-------- 7-- 7-- 5 7------|------ 3------1010--10----------|
A|---------------------- 5--------|------ 3------ 8----------------|
E| 6-------------- 5------------ 3|---------------------- 7------ 0|
http://classicalguitartablature.blogspot.com/
E|-- 7-- 7---- 4---- 91111--------|-------- 9--1111--------------11|
B|-- 5-- 5-- 7-- 7------12----1212|---- 912----1211------11----11 8|
G|-- 4-- 4-- 4-- 6------11--11----|--11-- 9---- 911------11----11 8|
D|------------------------------13|------ 9------------------------|
A|---------------- 6------11------|-------- 9----------------------|
E|------------------------------ 9|---------------- 7---------- 7--|
http://classicalguitartablature.blogspot.com/
E|------11------------------------|-------------- 8 8 8 6------ 6--|
B|------ 8------11--11 9-------- 2|---- 2-------- 6 6 6 6------ 4--|
G|------ 8------ 8-- 8 8----------|-- 1---- 1---- 6 6 6 6------ 4--|
D|--------------10--1010----10----| 3-------- 3--------------------|
A|-------------- 8----------------| 1------------ 6----------------|
E| 8---------- 8------------------|------------------------------ 4|
http://classicalguitartablature.blogspot.com/
E|-------------- 6-- 6 4-------- 4|--------------------------------|
B|---- 4-------- 4-- 4 4------ 7 2|------ 2------ 7---- 7 9---- 911|
G|-- 4------ 4 4 4-- 4 4-------- 3|---- 3---- 3-- 4-- 4---- 6 6-- 8|
D| 4-------- 4--------------------|-- 3-------- 3---- 4---- 6---- 8|
A|-------------- 4----------------|--------------------------------|
E|--------------------------------| 2-------------- 4---- 6------ 8|
http://classicalguitartablature.blogspot.com/
E|--------------------------------|-------------- 8 8 8 6------ 6--|
B|------11--11----1111 9-------- 2|---- 2-------- 6 6 6 6------ 4--|
G|------ 8-- 8---- 8 8-- 8--------|-- 1---- 1---- 6 6 6 6------ 4--|
D|------ 8-- 8----1010--10----10--| 3-------- 3--------------------|
A|---------------- 8 8------------| 1------------ 6----------------|
E|---------- 8--------------------|------------------------------ 4|
http://classicalguitartablature.blogspot.com/
E|-------------- 6-- 6 4-------- 4|--------------------------------|
B|---- 4-------- 4-- 4 4------ 7 2|---- 2---- 0-- 3-------- 2------|
G|-- 4------ 4 4 4-- 4 4-------- 3|-- 3-- 3 2-- 2 3---- 3-- 3------|
D| 4-------- 4--------------------|------------------ 3---- 2------|
A|-------------- 4----------------|------------------------ 3------|
E|--------------------------------| 2-------------- 3--------------|
http://classicalguitartablature.blogspot.com/
E|-------- 1-- 0------------------|--------------------------------|
B| 1---- 1-------- 1---------- 3--|---------- 1------ 3------------|
G| 2-- 2---------- 2---- 2--------|-- 2-------- 3-- 5-- 3---- 3-- 2|
D|-- 3---------------- 3---- 3----|-- 3 3---------- 5---- 3--------|
A|---------------- 0------------ 1|---------------- 3--------------|
E| 1------------------------------|--------------------------------|
http://classicalguitartablature.blogspot.com/
E|---------- 1 0 1---------- 8 5 1|------------------------------ 5|
B|------ 1---------------------- 3|------ 3---------------------- 5|
G|---- 2---------- 5--------------|-- 2------ 2 3-- 5 7---- 5 5-- 5|
D|-- 3------------------ 7--------|-- 3------------ 5---- 5--------|
A|--------------------------------| 1------------------------------|
E| 1-------------- 5--------------|---------------- 8--------------|
http://classicalguitartablature.blogspot.com/
E|--------------------------------|--------------------------------|
B|--------------------------------|--------------------------------|
G|------------ 5------------------|--------------------------------|
D|------ 7------------------------|--------------------------------|
A| 8------------------------------|--------------------------------|
E|--------------------------------|--------------------------------|
http://classicalguitartablature.blogspot.com/

0 ความคิดเห็น:

แสดงความคิดเห็น