To celebrate the anniversary, I am giving you (finally...) : iPhone LickByNeck !!!!!!

Alone (BASIC)

The Heart's classic tune fingerstyle chord melody guitar BASIC arrangement played in the key of Am.

http://classicalguitartablature.blogspot.com/
Alone - Heart - BASIC ARRANGEMENT played in the key of Am
http://classicalguitartablature.blogspot.com/
E|--------------------------------|--------------------------------|
B| 1------ 1------ 1------ 1------| 0---- 0-------- 0--------------|
G| 2------ 2------ 2------ 2------| 0---- 0-------- 0-- 2-- 0------|
D|---- 2------ 2-- 3-- 3------ 3--|---- 0------ 0-- 0---------- 3--|
A| 0------------------------------|--------------------------------|
E|---------------- 1--------------| 3-------------- 1--------------|
http://classicalguitartablature.blogspot.com/
E|--------------------------------|--------------------------------|
B| 1------ 1------ 1------ 1------| 0---- 0---------------- 0------|
G| 2------ 2------ 2------ 2------| 0------ 0------ 1-- 2----------|
D|---- 2------ 2-- 3-- 3------ 3--|---- 0------ 0-- 2-------- 2----|
A| 0------------------------------|--------------------------------|
E|---------------- 1--------------| 3-------------- 4--------------|
http://classicalguitartablature.blogspot.com/
http://classicalguitartablature.blogspot.com/
E|--------------------------------|--------------------------------|
B|---- 1-- 1 1-- 1---- 1-- 1-- 3--| 0---------- 0-- 0--------------|
G|---- 2-- 2 2-- 2---- 2-- 2-- 2--| 0------ 0------ 0-- 2-- 0------|
D|---- 2-- 2 2-- 3---- 3-- 3-- 3--|---- 0---------------------- 3--|
A| 0------------------------------|--------------------------------|
E|---------------- 1--------------| 3-------------- 1--------------|
http://classicalguitartablature.blogspot.com/
E|--------------------------------|--------------------------------|
B|--------------------------------|------------------------ 0------|
G|-- 2 2------ 2---------- 2------|-------- 0------ 1-- 2----------|
D| 2---- 2-------- 3-- 3------ 3--|---- 0------ 0-- 2---------- 2--|
A| 0------------------------------|--------------------------------|
E|---------------- 1--------------| 3-------------- 4--------------|
http://classicalguitartablature.blogspot.com/
E|--------------------------------|--------------------------------|
B|---- 1-- 1 1-- 1---- 1-- 1-- 3--| 0---------- 0-- 0--------------|
G|---- 2-- 2 2-- 2---- 2-- 2-- 2--| 0------ 0------ 0-- 2-- 0------|
D|---- 2-- 2 2-- 3---- 3-- 3-- 3--|---- 0---------------------- 3--|
A| 0------------------------------|--------------------------------|
E|---------------- 1--------------| 3-------------- 1--------------|
http://classicalguitartablature.blogspot.com/
E|--------------------------------|--------------------------------|
B|--------------------------------|------------------------ 0-- 0--|
G|-- 2 2------ 2---------- 2------|-------- 0------ 1-- 2---- 2----|
D| 2---- 2-------- 3-- 3------ 3--|---- 0------ 0-- 2--------------|
A| 0------------------------------|--------------------------------|
E|---------------- 1--------------| 3-------------- 4--------------|
http://classicalguitartablature.blogspot.com/
E|--------------------------------|-------------------- 0----------|
B| 1-- 1-- 1-- 1 3---- 1-- 1------|-------------------- 1---- 3 1--|
G| 2-- 2-- 2-- 2 0---- 0-- 0------|-------- 5---------- 0---- 0 0--|
D| 3-- 3-- 3-- 3 2---- 2-- 2-- 2--|---- 7------ 7------------ 2 2--|
A|--------------------------------| 5-------------- 3--------------|
E| 1-------------- 0--------------|--------------------------------|
http://classicalguitartablature.blogspot.com/
E|--------------------------------|--------------------------------|
B| 1-- 1-- 1-- 1 3---- 1-- 1------|------------------------ 0-- 1--|
G| 2-- 2-- 2-- 2 0---- 0-- 0------|-------- 5-------------- 0------|
D| 3-- 3-- 3-- 3 2---- 2-- 2-- 2--|---- 7------ 7------ 0----------|
A|--------------------------------| 5------------------------------|
E| 1-------------- 0--------------|---------------- 3--------------|
http://classicalguitartablature.blogspot.com/
E|---------------- 0--------------|------ 5---- 6------------------|
B|------------ 1------------------|------ 6-- 6------------------10|
G|-------- 0----------------------|------------------------ 7------|
D|---- 2--------------------------|---- 7-------------- 8------ 8--|
A| 3------------------------------| 5------------------------------|
E|--------------------------------|-------------- 6----------------|
http://classicalguitartablature.blogspot.com/
E|-------- 8-- 8------------------|------------ 6 6---- 6-- 6 6----|
B|----1111---- 8----10---- 8-- 8--| 6------ 6-- 6 6---- 6-- 6 6--11|
G|10--10--10-- 9------ 91010------| 7------ 7-- 7-- 7 7-- 7-- 7--10|
D|10--10--------------10----------|---- 7--------------------------|
A| 8------------------------------| 5------------------------------|
E|---------------- 8--------------|---------------- 6--------------|
http://classicalguitartablature.blogspot.com/
E|--------------------------------|------------ 6 6---- 6-- 6 6----|
B|--10------10----10 8------------|-------- 6---- 6---- 6-- 6 6----|
G|--10--10-- 9---- 9-- 9------ 9--|-------- 7---- 7---- 7-- 7 7----|
D|10----10--10----10--10--10------|---- 7--------------------------|
A| 8------------------------------| 5------------------------------|
E|-------------- 8----------------|---------------- 6--------------|
http://classicalguitartablature.blogspot.com/
E|------------ 8---------------- 8|---- 8-- 8-- 8---- 6-- 5-- 5----|
B|10--1011---- 8------------------| 6-- 6-- 6-- 6---- 6-- 6 8 5----|
G|10--1010----10--------10--------| 5-- 5-- 5-- 7---- 7------ 5----|
D|10--10--10-------- 8-------- 8--|--------------------------------|
A| 8------------------------------|------------------------------ 3|
E|---------------- 8--------------| 5-------------- 6--------------|
http://classicalguitartablature.blogspot.com/
E|-- 3-------------------------- 8|---- 8-- 8-- 8---- 6-- 5-- 5----|
B|-- 5-------- 5-------------- 5--| 6-- 6-- 6-- 6---- 6-- 6 8 5----|
G|-------- 5-------------- 5------| 5-- 5-- 5-- 7---- 7------ 5----|
D|-------------------- 5----------|--------------------------------|
A|---------------- 3--------------|------------------------------ 3|
E|--------------------------------| 5-------------- 6--------------|
http://classicalguitartablature.blogspot.com/
E|-- 3----------------------------|--------------------------------|
B|-- 5-------- 5---------- 0------|---- 1-- 1 1-- 1---- 1-- 1-- 3--|
G|-------- 5------ 1-- 2----------|---- 2-- 2 2-- 2---- 2-- 2-- 2--|
D|---------------- 2---------- 2--|---- 2-- 2 2-- 3---- 3-- 3-- 3--|
A|--------------------------------| 0------------------------------|
E|---------------- 4--------------|---------------- 1--------------|
http://classicalguitartablature.blogspot.com/
E|--------------------------------|--------------------------------|
B| 0---------- 0-- 0--------------|--------------------------------|
G| 0------ 0------ 0---- 2-- 0----|------------ 2---- 2------------|
D|---- 0---------- 0--------------| 3---- 2------------------------|
A|--------------------------------|------ 0------------------------|
E| 3-------------- 1--------------|--------------------------------|
http://classicalguitartablature.blogspot.com/

0 ความคิดเห็น:

แสดงความคิดเห็น