To celebrate the anniversary, I am giving you (finally...) : iPhone LickByNeck !!!!!!

Angel Of The Morning (BASIC)

Juice Newton's tune fingerstyle chord melody guitar BASIC arrangement played in the key of G.

Angel Of The Morning - Juice Newton - BASIC ARRANGEMENT played in the key of G
http://classicalguitartablature.blogspot.com/
E|------------------------ 0-- 2--| 3-- 2-- 0----------------------|
B|------------ 3------ 3----------| 3---------- 3-- 1-- 0----------|
G|-------- 0---------- 0----------| 0-------------- 0------ 2-- 0--|
D|---- 4-------------- 4----------|---------------- 2--------------|
A| 5-------------- 5--------------|-------------- 3----------------|
E|--------------------------------| 3------------------------------|
http://classicalguitartablature.blogspot.com/
E|--------------------------------|-------------------------- 0----|
B|-------------------------- 0----|---- 3-- 3 0-- 3---- 3-- 3------|
G|------------------ 0-- 2--------|---- 0-- 0-- 0 0---- 0 0--------|
D| 4-- 2 0---- 2 4----------------|---- 0-- 0-- 0 0---- 2 2--------|
A| 5------------------------------|---------------- 3--------------|
E|--------------------------------| 3------------------------------|
http://classicalguitartablature.blogspot.com/
E|--------------------------------|--------------------------------|
B| 3------ 3-- 0-- 1-- 0----------|---- 0-------- 0-------- 1------|
G| 0---------- 2-- 0------ 2-- 0--| 0---------- 0---------- 0---- 0|
D|---- 4---------- 2--------------|-------- 0---------- 2------ 2--|
A| 5-------------- 3--------------|---------------- 3--------------|
E|--------------------------------| 3------------------------------|
http://classicalguitartablature.blogspot.com/
E|--------------------------------|-------------------------- 0----|
B|------------ 3-------------- 1--|---- 3-- 3 0-- 3---- 3-- 3------|
G|-------- 0-------------- 0------|---- 0-- 0-- 0 0---- 0 0--------|
D|---- 4-------- 4 2-- 2----------|---- 0-- 0-- 0 0---- 2 2--------|
A| 5-------------- 3--------------|---------------- 3--------------|
E|--------------------------------| 3------------------------------|
http://classicalguitartablature.blogspot.com/
E|--------------------------------|--------------------------------|
B| 3------ 3-- 0-- 1-- 0----------|---- 0-------- 0-------- 1------|
G| 0---------- 2-- 0------ 2-- 0--| 0---------- 0---------- 0---- 0|
D|---- 4---------- 2--------------|-------- 0---------- 2------ 2--|
A| 5-------------- 3--------------|---------------- 3--------------|
E|--------------------------------| 3------------------------------|
http://classicalguitartablature.blogspot.com/
E|--------------------------------|--------------------------------|
B|------------ 3------ 1------ 0--|---- 1-- 1-- 0------------------|
G|-------- 0---------- 0------ 0--|---- 2-- 2---- 2---- 0----------|
D|---- 4-------- 4---- 2------ 0--|---- 2-- 2------------------ 2--|
A| 5-------------- 3------ 2------| 0-------------- 3--------------|
E|--------------------------------|--------------------------------|
http://classicalguitartablature.blogspot.com/
E|--------------------------------|-------------------------- 0----|
B|------------ 3---------- 3------|---- 1-- 1-- 0---------------- 3|
G| 2------ 2------ 2---------- 2--|---- 2-- 2---- 2---- 0 0--------|
D|---- 4-------------- 4----------|---- 2-- 2-------- 2-- 2--------|
A| 5------------------------------| 0-------------- 3------------ 5|
E|--------------------------------|--------------------------------|
http://classicalguitartablature.blogspot.com/
E|--------------------------------|-- 3-- 3-- 3 3---- 0-- 0-- 3----|
B|------------ 3-- 1------ 3------|-- 3-- 3-- 3-- 1-- 1-- 1-- 1----|
G|-------- 0------ 0------ 0------|-- 0-- 0-- 0 0---- 0-- 0-- 0----|
D|---- 4-------------- 2 4---- 4--|--------------------------------|
A|---------------- 3------ 5------|-------------- 3----------------|
E|------------------------------ 3|--------------------------------|
http://classicalguitartablature.blogspot.com/
E|--------------------------------|-- 7---- 7-- 7 7---------- 7----|
B| 8------ 7------ 5------ 7------|---- 8-- 8-- 8 8-- 8----10 8--12|
G| 5------ 5------ 5------ 7------|---- 7-- 7-- 7 9-- 9-- 9------11|
D|---- 7------ 7------ 5 7---- 7--|------------------------------12|
A| 5-------------- 3------ 5------|10------------------------------|
E|--------------------------------|---------------- 8--------------|
http://classicalguitartablature.blogspot.com/
E|--------------------------------|-- 3-- 3-- 3 3---- 0-- 0-- 3----|
B|--------10------ 8------10------|-- 3-- 3-- 3-- 1-- 1-- 1-- 1----|
G|--------11------ 9------11------|-- 0-- 0-- 0 0---- 0-- 0-- 0----|
D|----12------12--10--10--12--12--|--------------------------------|
A|--------------------------------|-------------- 3----------------|
E|10-------------- 8------10---- 3|--------------------------------|
http://classicalguitartablature.blogspot.com/
E|--------------------------------|---------- 0--------------------|
B| 8------ 7------ 5------ 7------|---------- 1---- 3 1------ 0-- 1|
G| 5------ 5------ 5------ 7------|-------- 0 0---- 0-- 0-------- 0|
D|---- 7------ 7------ 5 7---- 7--|---- 2---------- 2------ 2------|
A| 5-------------- 3------ 5---- 3|--------------------------------|
E|--------------------------------|--------------------------------|
http://classicalguitartablature.blogspot.com/
E|--------------------------------|------ 0------------------------|
B|---------- 1---------- 1--------|-------- 1-- 3------ 1---- 0 1--|
G|------ 0------ 0------------ 0--|---- 0-- 0-- 0------ 0-------- 0|
D|---- 2------------ 2------------|---- 2------ 2-- 2------ 2------|
A|------------------------------ 3|--------------------------------|
E|--------------------------------|--------------------------------|
http://classicalguitartablature.blogspot.com/
E|--------------------------------|--------------------------------|
B|------------ 1---------- 1------|-------- 3 3---- 3---------- 1 1|
G|-------- 0------ 0--------------| 0------ 0 0---- 0------ 0---- 0|
D|---- 2-------------- 2---- 2----|---- 0---- 0---- 0-- 0----------|
A|--------------------------------|--------------------------------|
E|--------------------------------| 3-------------- 3--------------|
http://classicalguitartablature.blogspot.com/
E|--------------------------------|------ 0-- 0-- 0----------------|
B|-------- 0 0--------------------|------ 1-- 1-- 1------------ 3 3|
G|------ 0-- 0------------ 0------|------ 0-- 0-- 0------ 0--------|
D| 0 0---------------- 0----------|---- 2-------------- 2----------|
A|---------------------------- 2--| 3------------ 3----------------|
E| 3-------------- 3--------------|--------------------------------|
http://classicalguitartablature.blogspot.com/
E|--------------------------------|--------------------------------|
B|-------- 1-- 1------------------|-------- 3 3-- 3---------- 1-- 1|
G| 0------ 0-- 0---------- 0------|-------- 0 0-- 0-------- 0---- 0|
D| 2-- 2-------------- 2------ 2--|---- 0-- 0 0-- 0---- 0-------- 0|
A| 3-------------- 3--------------|--------------------------------|
E|--------------------------------| 3-------------- 3--------------|
http://classicalguitartablature.blogspot.com/
E|--------------------------------|--------------------------------|
B|------ 0-- 0--------------------|--------------------------------|
G|------------------------ 0------|---- 0--------------------------|
D|---- 0-------------- 0------ 0--|-- 0----------------------------|
A|--------------------------------|--------------------------------|
E| 3------------ 3----------------|-- 3----------------------------|
http://classicalguitartablature.blogspot.com/

0 ความคิดเห็น:

แสดงความคิดเห็น