To celebrate the anniversary, I am giving you (finally...) : iPhone LickByNeck !!!!!!

Angel - Sarah McLachlan

Sarah McLachlan's tune fingerstyle chord melody guitar BASIC arrangement played in the key of D.

Angel - Sarah McLachlan - BASIC ARRANGEMENT played in the key of D
http://classicalguitartablature.blogspot.com/
E|------------------------|------------------------|
B| 3---------- 3-------- 0|------------ 0-------- 3|
G| 2------ 2------ 2------| 0---- 0-------- 0---- 2|
D|---- 4-------------- 4--|---- 0-------------- 0 4|
A| 5----------------------| 5-------------------- 5|
E|------------------------|------------------------|
http://classicalguitartablature.blogspot.com/
E|------------------------| 2---- 0----------------|
B|------------------------|-------------- 3------ 3|
G|---------------- 2------|------------------------|
D|------------------------|------------------------|
A|------------------------|------------------------|
E|------------------------|------------------------|
http://classicalguitartablature.blogspot.com/
E|---- 0------------------|---------------- 0---- 0|
B|---------------- 3------|------------ 3------ 3 0|
G| 0---------- 0------ 0--|-------- 0------------ 0|
D| 4---- 4----------------|---- 4------------------|
A|------------------------|------------------------|
E| 0----------------------| 0----------------------|
http://classicalguitartablature.blogspot.com/
E|------------------------|---------------------- 2|
B|---- 3 0----------------|------------ 0-------- 3|
G|------------ 0------ 0--|-------- 0------ 2------|
D|-------------- 0--------|---- 0-------------- 0--|
A|------------------------|------------------------|
E| 3-------------------- 3|------------------------|
http://classicalguitartablature.blogspot.com/
E|-------- 2------ 2---- 2|------ 0-------------- 0|
B|-------- 3------ 3---- 0|------ 0------ 3------ 2|
G| 2-- 2------ 2------ 0--| 0-- 0------ 0------ 0 2|
D|------------------------|------------------------|
A| 5----------------------|------------------------|
E|---------------------- 3|------------------------|
http://classicalguitartablature.blogspot.com/
E|------------------------|------------------------|
B|------------ 2----------|------ 0-------- 3-- 0--|
G|------ 2------ 2------ 2|------ 2----------------|
D|---- 2-------------- 2--|---- 2------ 2----------|
A| 0-------------------- 0|------------------------|
E|------------------------|------------------------|
http://classicalguitartablature.blogspot.com/
E|---- 0------------------|---------------- 0---- 0|
B| 3-------------- 3------|------------ 3------ 3 0|
G| 0---------- 0------ 0--|------ 0----------------|
D| 4------ 4--------------|---- 4------------------|
A|------------------------|------------------------|
E| 0----------------------| 0----------------------|
http://classicalguitartablature.blogspot.com/
E|------------------------|---------------- 2-- 3--|
B|---- 3 0----------------|------------ 0----------|
G|------------ 0------ 0--|------ 0----------------|
D|-------------- 0--------|---- 0------------------|
A|------------------------|------------------------|
E| 3----------------------| 3----------------------|
http://classicalguitartablature.blogspot.com/
E| 5------ 5------ 5------| 7-------------------- 0|
B| 7------ 7------ 7------|10----10------ 7------ 2|
G| 7-- 7------ 7------ 7--| 7------ 7------------ 0|
D|------------------------|---- 9------ 9------ 9--|
A| 5----------------------|10-------------------- 0|
E|------------------------|------------------------|
http://classicalguitartablature.blogspot.com/
E|---------------------- 2|------ 2-------- 0------|
B|------------ 2-------- 2|------ 2-------- 2-- 3 3|
G|-------- 0------ 0---- 0|------ 0-------- 0------|
D|---- 2-------------- 2--|------------------------|
A|------------------------| 0-------------- 0------|
E|------------------------|------------------------|
http://classicalguitartablature.blogspot.com/
E|---- 0------------------|---------------- 0---- 0|
B|---------------- 3------|------------ 3------ 3 0|
G| 0---------- 0------ 0--|-------- 0------------ 0|
D| 4---- 4----------------|---- 4------------------|
A|------------------------|------------------------|
E| 0----------------------| 0----------------------|
http://classicalguitartablature.blogspot.com/
E|------------------------|---------------------- 2|
B|---- 3 0----------------|------------ 0-------- 3|
G|------------ 0------ 0--|-------- 0------ 2------|
D|-------------- 0--------|---- 0-------------- 0--|
A|------------------------|------------------------|
E| 3-------------------- 3|------------------------|
http://classicalguitartablature.blogspot.com/
E|-------- 2------ 2---- 2|------ 0----------------|
B|-------- 3------ 3---- 0|------ 0------ 3------ 5|
G| 2-- 2------ 2------ 0--| 0-- 0------ 0------ 0 6|
D|------------------------|---------------------- 7|
A| 5----------------------|------------------------|
E|---------------------- 3|------------------------|
http://classicalguitartablature.blogspot.com/
E|------------------------|-------------- 5------ 7|
B|------------ 5-------- 5|------ 7----------------|
G|------ 6-------- 6---- 6|------ 6----------------|
D|---- 7-------------- 7--|---- 7------ 7------ 7--|
A| 0----------------------| 0----------------------|
E|------------------------|------------------------|
http://classicalguitartablature.blogspot.com/
E|---- 7-------- 7------ 7|------ 7------ 7------ 7|
B| 0-- 0------ 0------ 0 0|------ 0------ 0----1010|
G| 0------ 0------------ 0|------------ 0-------- 7|
D|------------------------|------------------------|
A|------------------------|------------------------|
E| 0----------------------| 0------------ 0--------|
http://classicalguitartablature.blogspot.com/
E|------------------------|---------------------- 2|
B|----10--------10--------|----------------10-- 8 3|
G|---- 7------ 7----------|-------- 7--------------|
D|------ 9------------ 9--|---- 9------ 9----------|
A|10--------------------10|------------------------|
E|------------------------|------------------------|
http://classicalguitartablature.blogspot.com/
E|-------- 2------ 2---- 2|------ 0----------------|
B|-------- 3------ 3---- 0|------ 0------ 3------ 2|
G| 2-- 2------ 2------ 0--| 0-- 0------ 0------ 0 2|
D|------------------------|---------------------- 2|
A| 5----------------------|---------------------- 0|
E|---------------------- 3|------------------------|
http://classicalguitartablature.blogspot.com/
E|------------------------|-------------------- 0--|
B|-- 0---------------- 0--|---------------- 3------|
G|---- 2-------- 2--------|------------ 2----------|
D|------------ 2----------|------ 2----------------|
A|------------------------| 0----------------------|
E|------------------------|------------------------|
http://classicalguitartablature.blogspot.com/
E| 2------------ 2------ 2|------------ 2-------- 2|
B| 3---------- 3-------- 0|-------------------- 0 3|
G| 2------ 2------------ 0|-------- 0---- 0------ 2|
D|---- 4-------------- 4--|---- 0------------------|
A| 5----------------------| 5-------------------- 5|
E|------------------------|------------------------|
http://classicalguitartablature.blogspot.com/
E|---------------------- 2|-------- 2---- 5------ 5|
B|------ 3------------ 3 3|-------- 3------------ 2|
G|---------------- 2------|---- 2------ 2-------- 2|
D|---- 4------ 4----------|-------------------- 4--|
A|------------------------| 5----------------------|
E|------------------------|------------------------|
http://classicalguitartablature.blogspot.com/
E|------------------------|-------------- 2------ 5|
B|------------ 2----------|------------ 2----------|
G|------ 2------ 2--------|-------- 2--------------|
D|---- 2-------------- 2--|---- 2------------------|
A|------------------------|------------------------|
E| 2----------------------| 2----------------------|
http://classicalguitartablature.blogspot.com/
E|------------------------|------------------------|
B|------------ 2----------|-------- 3------ 3------|
G|------ 2-------- 2------|------------ 2------ 2--|
D|---- 2-------------- 2--|---- 2------------------|
A|------------------------|------------------------|
E| 2----------------------| 2----------------------|
http://classicalguitartablature.blogspot.com/
E| 7-------------------- 8|------------ 8-------- 7|
B| 8---------- 8-------- 8|------ 8------ 8------ 8|
G| 7------ 7------ 7---- 9|---- 9-------------- 0 7|
D|---- 9-------------- 0--|------------------------|
A|10----------------------|10--------------------10|
E|------------------------|------------------------|
http://classicalguitartablature.blogspot.com/
E|------------------------|---------------------- 2|
B|---- 8-------- 8--------|---------------------- 3|
G|------------ 7----------|------ 7------ 9------ 2|
D|-------- 9---------- 9--|---- 9------------------|
A|------------------------|10-------------------- 0|
E|------------------------|------------------------|
http://classicalguitartablature.blogspot.com/
E|---------------------- 2|------ 0-------------- 0|
B|------------ 3-------- 3|------ 3------ 3------ 2|
G|------ 2------ 2--------|-------------------- 2--|
D|---- 4-------------- 4--|---- 4------ 4----------|
A|---------------------- 0|------------------------|
E|------------------------|------------------------|
http://classicalguitartablature.blogspot.com/
E|------------------------|-------------------- 0--|
B|------------ 2----------|---------------- 3------|
G|-------- 0---- 0--------|------------ 0----------|
D|---- 2-------------- 2--|------ 4----------------|
A| 0----------------------| 0----------------------|
E|------------------------|------------------------|
http://classicalguitartablature.blogspot.com/
E| 2------------ 2------ 2|------------ 2-------- 2|
B| 3---------- 3-------- 0|-------------------- 0 3|
G| 2------ 2------------ 0|-------- 0---- 0------ 2|
D|---- 4-------------- 4--|---- 0------------------|
A| 5----------------------| 5-------------------- 5|
E|------------------------|------------------------|
http://classicalguitartablature.blogspot.com/
E|---------------------- 2|-------- 2---- 5------ 5|
B|------ 3------------ 3 3|-------- 3------------ 2|
G|---------------- 2------|---- 2------ 2-------- 2|
D|---- 4------ 4----------|-------------------- 4--|
A|------------------------| 5----------------------|
E|------------------------|------------------------|
http://classicalguitartablature.blogspot.com/
E|------------------------|-------------- 2------ 5|
B|------------ 2----------|------------ 2----------|
G|------ 2------ 2--------|-------- 2--------------|
D|---- 2-------------- 2--|---- 2------------------|
A|------------------------|------------------------|
E| 2----------------------| 2----------------------|
http://classicalguitartablature.blogspot.com/
E|------------------------|------------------------|
B|------------ 2----------|-------- 3------ 3------|
G|------ 2-------- 2------|------------ 2------ 2--|
D|---- 2-------------- 2--|---- 2------------------|
A|------------------------|------------------------|
E| 2----------------------| 2----------------------|
http://classicalguitartablature.blogspot.com/
E| 7-------------------- 8|------------ 8-------- 7|
B| 8---------- 8-------- 8|------ 8------ 8------ 8|
G| 7------ 7------ 7---- 9|---- 9-------------- 0 7|
D|---- 9-------------- 0--|------------------------|
A|10----------------------|10--------------------10|
E|------------------------|------------------------|
http://classicalguitartablature.blogspot.com/
E|------------------------|------------------------|
B|---- 8-------- 8--------|---------------------- 7|
G|------------ 7----------|------ 7------ 9------ 7|
D|-------- 9---------- 9--|---- 9------------------|
A|------------------------|10-------------------- 0|
E|------------------------|------------------------|
http://classicalguitartablature.blogspot.com/
E|------------------------| 5----------------------|
B|------------ 7----------| 7------ 8------ 7---- 5|
G|------ 7------ 7--------|-------- 7---------- 7--|
D|---- 7-------------- 7--|---- 7------ 7----------|
A|------------------------| 0----------------------|
E|------------------------|------------------------|
http://classicalguitartablature.blogspot.com/
E|------------------------|------------------------|
B|------------ 5----------| 7------ 5---- 3------ 3|
G|-------- 0------ 0------| 0------ 0------ 0---- 2|
D|---- 5-------------- 5--|---- 7------ 5 4---- 4--|
A| 0----------------------| 0------ 0------ 0---- 5|
E|------------------------|------------------------|
http://classicalguitartablature.blogspot.com/
E| 0----------------------|------------------------|
B|---- 3-------------- 3--|-------- 3---- 3--------|
G|------ 2------ 2--------|---------------------- 7|
D|------------ 4----------| 4----------------------|
A|------------------------|----------------------10|
E|------------------------|------------------------|
http://classicalguitartablature.blogspot.com/
E| 7----------------------| 8------------ 8--------|
B| 8----------------------| 8-------------------- 8|
G|---------------------- 9|---------------------- 7|
D|------------------------|------------------------|
A|----------------------10|----------------------10|
E|------------------------|------------------------|
http://classicalguitartablature.blogspot.com/
E| 7----------------------|------------------------|
B|---- 8------------------|------------------------|
G|------------------------|-------- 7------ 9------|
D|------------------------|------------------------|
A|------------------------|------------------------|
E|------------------------|------------------------|
http://classicalguitartablature.blogspot.com/
E|-- 2--------------------|---- 5-------- 3--------|
B|-- 3--------------------|------------------------|
G|-- 2---------------- 2--|------------------------|
D|---------- 4------------|------------------------|
A| 0----------------------|------------------------|
E|------------------------|------------------------|
http://classicalguitartablature.blogspot.com/
E|-- 2--------------------|------------------------|
B|-------------- 5--------|------------------------|
G|-------------- 0--------|-------------- 0--------|
D|-------------- 5--------|-- 5--------------------|
A|------------ 0----------|------------------------|
E|------------------------|------------------------|
http://classicalguitartablature.blogspot.com/
E|------------------------|------------------------|
B|-- 7------------ 5------|------ 3----------------|
G|-- 0------------ 0------|------ 0----------------|
D|-- 7------------ 5------|------ 4----------------|
A| 0----------------------|------------------------|
E|------------------------|------------------------|
http://classicalguitartablature.blogspot.com/
E|------------ 0----------|------------------------|
B|------------ 3-- 3------|------------------------|
G|---------- 0---------- 0|---------- 0------------|
D|------------------------|-- 4--------------------|
A|---------- 5------------|------------------------|
E|------------------------|------------------------|
http://classicalguitartablature.blogspot.com/

0 ความคิดเห็น:

แสดงความคิดเห็น