To celebrate the anniversary, I am giving you (finally...) : iPhone LickByNeck !!!!!!

Aubrey (BASIC)

Bread's classic tune fingerstyle chord melody guitar BASIC arrangement played in the key of G.

Aubrey - Bread - BASIC ARRANGEMENT played in the key of G
http://classicalguitartablature.blogspot.com/
E|--------------10----------------|-------- 8 7------------------ 0|
B| 8-------------- 7--------------|---- 8-------- 8-------------- 1|
G| 7---- 7-------- 7---- 7--------|-- 7---------- 7------ 7--------|
D|-- 9-------- 9------ 7------ 7--|-------------- 9-- 9------ 9----|
A|10-------------- 9--------------| 7---------------------------- 3|
E|--------------------------------|----------------10--------------|
http://classicalguitartablature.blogspot.com/
E|------------------ 2-- 3---- 5 0|--------------------------------|
B|------------------ 3------------|---------- 1-------------- 5----|
G|-------- 0-------- 2------------|-------- 0------------ 5--------|
D|-- 2------ 2--------------------|---- 2------------ 5------------|
A|---------------- 2--------------| 0-------------- 5--------------|
E|--------------------------------|------------------------------ 3|
http://classicalguitartablature.blogspot.com/

http://classicalguitartablature.blogspot.com/
E|--------------------------------|--------------------------------|
B|-------- 0------------------ 3--| 0------------------------------|
G|-------------- 0 0-- 2-- 0------|------ 0------------ 2 0------ 0|
D|---- 0------ 0------------------|---- 0---- 0-------------- 4----|
A|--------------------------------|---------------- 5--------------|
E|---------------- 2--------------| 0------------------------------|
http://classicalguitartablature.blogspot.com/
E|--------------------------------|--------------------------------|
B|--------------------------------|---------- 1--------------------|
G|-------------------- 0-- 2------|------ 0------ 5----------------|
D|---- 4 2-- 0-- 2-- 4 2------ 2--|-- 2------------ 5-- 7 5------ 0|
A| 3-------------- 2------------ 0|---------------- 5-------- 7----|
E|--------------------------------|--------------------------------|
http://classicalguitartablature.blogspot.com/
E|-------- 3------------ 3--------|---------- 0--------------------|
B|-------- 3------------ 3--------|------ 0---- 7------------------|
G|--------------------------------|---------------------- 4--------|
D|---- 0---- 0-------- 0---- 0----|-- 0------------ 7 7------ 7----|
A|--------------------------------|-------------- 6-------------- 5|
E| 3-------------- 2--------------| 0------------------------------|
http://classicalguitartablature.blogspot.com/
E|-- 3 2-- 0----------------------|--------------------------------|
B|-- 3-------- 0------------------|-------- 0 1-- 0----------------|
G|------------------------ 0------|---- 0------------ 2-- 0-- 2----|
D|-------------------- 2------ 2--|---- 2------------------------ 0|
A|-------------- 4----------------| 3-------------- 3------------ 2|
E|--------------------------------|--------------------------------|
http://classicalguitartablature.blogspot.com/
E|--------------------------------|--------------------------------|
B| 0-- 3 0------------------------|--------------------------------|
G| 0---------- 0---------- 0------|---------- 2--------------------|
D|-------------------- 0------ 0--| 2 2 2------ 2-- 4 4 4-- 0---- 2|
A|---------------- 2--------------| 0---- 0-------- 2---- 2--------|
E|--------------------------------|--------------------------------|
http://classicalguitartablature.blogspot.com/
E|--------------------------------|--------------------------------|
B|--------------------------------|--------------------------------|
G|---------- 2-------------- 2----|---------- 2--------------------|
D|---- 2------ 4------ 4---- 4----| 2 2 2------ 2-- 4 4 4-- 0---- 2|
A| 3---- 3-------- 2------ 2------| 0---- 0-------- 2---- 2--------|
E|--------------------------------|--------------------------------|
http://classicalguitartablature.blogspot.com/
E|--------------------------------|--------------------------------|
B|--------------------------------|-------- 0----------------------|
G|---------- 2------ 0------------|---- 0------ 0-------------- 7--|
D|---- 2------ 4---------- 4-- 2--| 0------------------ 5 7--------|
A| 3---- 3------ 4-------- 4------| 5-------------- 5--------------|
E|--------------------------------|--------------------------------|
http://classicalguitartablature.blogspot.com/
E|--------------------------------|--------------------------------|
B|---------- 4--------------------|------------ 0---------------- 0|
G| 4------ 4---- 5-- 5-- 4--------| 0------ 0------------ 0-- 2-- 0|
D|-- 7------------------------ 7--|---- 0-------------- 0----------|
A| 6-------------- 6--------------|--------------------------------|
E|--------------------------------| 0-------------- 0--------------|
http://classicalguitartablature.blogspot.com/
E|-------------- 0----------------|--------------------------------|
B|-- 0 0-- 3-------- 3-- 0--------|------ 0------------------------|
G|-------------------------- 2-- 0|-- 2-- 0---- 0---------- 0---- 0|
D| 0---------- 0---------------- 2|------------ 2------ 2------ 2--|
A|--------------------------------|------------------------------ 6|
E| 1------------ 1----------------| 0---------- 0------------------|
http://classicalguitartablature.blogspot.com/
E|--------------------------------|--------------10----------------|
B|--------------------------------| 8-------------- 7--------------|
G|-------- 4 0-------------- 4----|-------- 7------ 7---- 7--------|
D|-- 7-------------- 7------------|---- 9------ 9------ 7------ 7--|
A|---------- 6--------------------|10-------------- 9--------------|
E|--------------------------------|--------------------------------|
http://classicalguitartablature.blogspot.com/
E|-------- 8 7------------------ 0|------------------ 2-- 3---- 5 0|
B|---- 8-------- 8-------------- 1|------------------ 3------------|
G|-- 7---------- 7------ 7--------|-------- 0-------- 2------------|
D|-------------- 9-- 9------ 9----|-- 2------ 2--------------------|
A| 7---------------------------- 3|---------------- 2--------------|
E|----------------10--------------|--------------------------------|
http://classicalguitartablature.blogspot.com/
E|--------------------------------|--------------------------------|
B|---------- 1-------------- 5----| 0------------------------------|
G|-------- 0------------ 5--------| 2------------------------------|
D|---- 2------------ 5------------| 0------------------------------|
A| 0-------------- 5--------------|--------------------------------|
E|------------------------------ 3|--------------------------------|
http://classicalguitartablature.blogspot.com/

0 ความคิดเห็น:

แสดงความคิดเห็น