To celebrate the anniversary, I am giving you (finally...) : iPhone LickByNeck !!!!!!

Be My Baby - The Ronettes

The Ronettes' tune fingerstyle chord melody guitar BASIC arrangement played in the key of E.

Be My Baby - The Ronettes - BASIC ARRANGEMENT played in the key of E
http://classicalguitartablature.blogspot.com/
E|--------------------------------|--------------------------------|
B|-------- 0-------------- 0------|------------------------ 0------|
G|-------- 1-------------- 1------|------------------------ 1------|
D|-------- 2-------------- 2------|------------------------ 2------|
A|--------------------------------|--------------------------------|
E| 0---------- 0-- 0--------------| 0-- 0------ 0-- 0--------------|
http://classicalguitartablature.blogspot.com/
E|--------------------------------|--------------------------------|
B|-------- 0------------ 0--------|------------------------ 0------|
G|-------- 1------------ 1--------|------------------------ 1------|
D|-------- 2------------ 2--------|------------------------ 2------|
A|--------------------------------|--------------------------------|
E| 0---------- 0------------------| 0-- 0------ 0-- 0--------------|
http://classicalguitartablature.blogspot.com/
E|--------------------------------|--------------------------------|
B|-------- 5---- 5---- 4---- 4----|------------ 4---- 5------------|
G|-------- 4------ 4-- 4---- 4----|---- 6------ 4-------------- 4--|
D|---- 6------ 6-- 6-- 6---- 6----|---- 6------ 6---------- 6------|
A| 7------------------------------|--------------------------------|
E|---------------- 7--------------| 0------------ 7-------------- 2|
http://classicalguitartablature.blogspot.com/
E|------ 2-------- 2--------------|--------------------------------|
B|------ 2------ 2---- 5------ 4--|--------------------------------|
G|-------------- 2---- 2------ 2--|-------- 2-------------- 2------|
D|-- 2-------- 2------ 2------ 4--|---- 4------ 4------ 4------ 4--|
A|---------------- 4--------------| 2------------------------------|
E|--------------------------------|---------------- 2--------------|
http://classicalguitartablature.blogspot.com/
E|--------------------------------|--------------------------------|
B|-------- 5---- 5---- 4---- 4----|------------ 4---- 5------------|
G|-------- 4------ 4-- 4---- 4----|---- 6------ 4-------------- 4--|
D|---- 6------ 6-- 6-- 6---- 6----|---- 6------ 6---------- 6------|
A| 7------------------------------|--------------------------------|
E|---------------- 7--------------| 0------------ 7-------------- 2|
http://classicalguitartablature.blogspot.com/
E|------ 2-------- 2--------------|--------------------------------|
B|------ 2------ 2---- 5------ 4--|--------------------------------|
G|-------------- 2---- 2------ 2--|-------- 2-------------- 2------|
D|-- 2-------- 2------ 2------ 4--|---- 4------ 4------ 4------ 4--|
A|---------------- 4--------------| 2----------------------------11|
E|--------------------------------|---------------- 2--------------|
http://classicalguitartablature.blogspot.com/
E|--------------------------------|--------------------------------|
B|------ 9------ 8---- 9------10--|-- 9-------- 8---- 9------------|
G|------11------11----11------11--|----11------11------------11----|
D|--10------10--10----10------10--|----10------10--------10--------|
A|------------------------------11|--------------------------------|
E|--------------11----------------|--------------11----------------|
http://classicalguitartablature.blogspot.com/
E|---------------------------- 5--|---- 4--------------------------|
B|------ 9------------ 9------ 6--|---- 6------ 6------------------|
G|------10------12------------ 4--|---- 4------ 6------ 6------ 6--|
D|-- 9-------- 9 9-------- 9------|------------ 6---------- 6------|
A|----------------11--------------| 4------------------------------|
E| 9------------------------------|---------------- 4--------------|
http://classicalguitartablature.blogspot.com/
E|-------------------------- 4----|-- 2----------------------------|
B|------ 7------ 6---- 7---- 2----|---- 2---- 5------ 2------------|
G|------ 9------ 9-- 9------ 3----|-------------------------- 3----|
D|-- 8------ 8-- 8-------- 8------|------ 2-------------- 2--------|
A| 9------------------------------|---------------- 4--------------|
E|-------------- 9-------------- 2|--------------------------------|
http://classicalguitartablature.blogspot.com/
E|--------------------------------|--------------------------------|
B| 4------ 4------ 5-- 5------ 7--|-------- 4------ 5------ 7------|
G| 2------ 2------ 2-- 2------ 4--|---- 4--------------------------|
D| 4------ 4------ 2-- 2------ 4--| 4---------- 4------ 4------ 4--|
A| 2---------- 2-- 4-- 4------ 6--|--------------------------------|
E|--------------------------------|--------------------------------|
http://classicalguitartablature.blogspot.com/
E|--------------------------------|------------------------------ 4|
B|------ 5-------- 4-------- 4----|------------ 9---- 7-------- 7 5|
G|-------- 4------ 4---- 4--------| 6-- 6------ 8-------- 9-- 8-- 6|
D|---- 6---- 6-------- 6----------| 6-- 6------ 9------------------|
A|--------------------------------|--------------------------------|
E| 0-------------- 7--------------| 0---------- 7------------------|
http://classicalguitartablature.blogspot.com/
E|--------------------------------|---------- 4------------------ 4|
B|------ 5-------- 4---------- 4--|------------ 4---- 7-- 5---- 7 5|
G|------ 6---------- 4-- 4------ 6|---- 6------ 4---- 6-- 4--------|
D|---- 6------ 6------ 6-------- 6|---- 6------------ 6-- 6---- 6--|
A| 4------------------------------| 4------------------------------|
E|---------------- 4--------------|-------------- 4----------------|
http://classicalguitartablature.blogspot.com/
E|--------------------------------|------------ 5---- 4-- 2-- 4----|
B|------ 5------ 4---------- 4-- 2|---- 2------ 2---- 2-- 2-- 2----|
G| 2------------ 2------ 2------ 2|---- 2------ 2---- 2-- 2-- 2----|
D|---- 2---- 2-------- 2----------|---- 2--------------------------|
A| 0------------------------------| 0------------------------------|
E|---------------- 0--------------|---------------- 0--------------|
http://classicalguitartablature.blogspot.com/
E| 5-------------- 4--------------| 2------------------------------|
B|------------ 2-------------- 2--|------------ 2-------------- 2--|
G|------ 2---------------- 2------|-------- 2-------------- 2------|
D|---- 2-------------- 2----------|---- 2-------------- 2----------|
A| 2------------------------------| 2------------------------------|
E|---------------- 2--------------|---------------- 2--------------|
http://classicalguitartablature.blogspot.com/
E|--------------------------------|------------------------------ 4|
B|------ 5-------- 4-------- 4----|------------ 9---- 7-------- 7 5|
G|-------- 4------ 4---- 4--------| 6-- 6------ 8-------- 9-- 8-- 6|
D|---- 6---- 6-------- 6----------| 6-- 6------ 9------------------|
A|--------------------------------|--------------------------------|
E| 0-------------- 7--------------| 0---------- 7------------------|
http://classicalguitartablature.blogspot.com/
E|--------------------------------|---------- 4------------------ 4|
B|------ 5-------- 4---------- 4--|------------ 4---- 7-- 5---- 7 5|
G|------ 6---------- 4-- 4------ 6|---- 6------ 4---- 6-- 4--------|
D|---- 6------ 6------ 6-------- 6|---- 6------------ 6-- 6---- 6--|
A| 4------------------------------| 4------------------------------|
E|---------------- 4--------------|-------------- 4----------------|
http://classicalguitartablature.blogspot.com/
E|--------------------------------|------------ 5---- 4-- 2-- 4----|
B|------ 5------ 4---------- 4-- 2|---- 2------ 2---- 2-- 2-- 2----|
G| 2------------ 2------ 2------ 2|---- 2------ 2---- 2-- 2-- 2----|
D|---- 2---- 2-------- 2----------|---- 2--------------------------|
A| 0------------------------------| 0------------------------------|
E|---------------- 0--------------|---------------- 0--------------|
http://classicalguitartablature.blogspot.com/
E| 5-------------- 4--------------| 2------------------------------|
B|------------ 2-------------- 2--|------------ 2-------------- 2--|
G|------ 2---------------- 2------|-------- 2-------------- 2------|
D|---- 2-------------- 2----------|---- 2-------------- 2----------|
A| 2------------------------------| 2------------------------------|
E|---------------- 2--------------|---------------- 2--------------|
http://classicalguitartablature.blogspot.com/
E|--------------------------------|--------------------------------|
B| 0------ 0---------- 0------ 0--|---- 0---- 0---------------- 0 0|
G| 1------ 1---------- 1------ 1--|---- 1---- 1---------------- 1--|
D| 2-------- 2-------- 2---- 2----|---- 2---- 2---------------- 2--|
A|---------------- 2--------------|-------------- 2-- 2------------|
E| 0------------------------------| 0------------------------------|
http://classicalguitartablature.blogspot.com/
E|--------------------------------|--------------------------------|
B|--------------------------------|--------------------------------|
G| 1------------------------------|--------------------------------|
D| 2------------------------------|--------------------------------|
A|--------------------------------|--------------------------------|
E| 0------------------------------|--------------------------------|
http://classicalguitartablature.blogspot.com/

0 ความคิดเห็น:

แสดงความคิดเห็น