To celebrate the anniversary, I am giving you (finally...) : iPhone LickByNeck !!!!!!

Bridge Over Troubled Water (BASIC)

The Simon And Garfunkel's classic tune fingerstyle chord melody guitar BASIC arrangement played in the key of G.

http://classicalguitartablature.blogspot.com/
Bridge Over Troubled Water - BASIC ARRANGEMENT played in the key of G.
http://classicalguitartablature.blogspot.com/
E|--------------------------------|--------------------------------|
B|------------ 0-------------- 0--|------------ 1-------------- 1--|
G|-------- 0-------------- 0------|-------- 0-------------- 0------|
D|---- 0-------------- 0----------|---- 2-------------- 2----------|
A|--------------------------------|--------------------------------|
E| 3-------------- 3--------------| 3-------------- 3--------------|
http://classicalguitartablature.blogspot.com/
E|--------------------------------|--------------------------------|
B|------------ 0-------------- 0--|------------ 1-- 1------ 1------|
G|-------- 0-------------- 0------|-------- 0------ 0------ 0------|
D|---- 0-------------- 0----------|---- 2---------- 2-- 2------ 2--|
A|--------------------------------|--------------------------------|
E| 3-------------- 3--------------| 3-------------- 3--------------|
http://classicalguitartablature.blogspot.com/
http://classicalguitartablature.blogspot.com/
E|--------------------------------|--------------------------------|
B| 0---------------------------- 1|------------ 1-- 1---- 3--------|
G| 0------ 2-- 0---------- 0------|-------- 0------ 0--------------|
D| 0-- 0-------------- 0------ 0 2|---- 2------------ 2-------- 2--|
A|--------------------------------|--------------------------------|
E| 3-------------- 3--------------| 3-------------- 3--------------|
http://classicalguitartablature.blogspot.com/
E|--------------------------------|------ 0------ 1------ 0--------|
B| 0------------------------------|-------- 1---- 1---- 1 1------ 3|
G| 0------ 0-------------- 0------|---------- 0-- 0-------------- 0|
D|---- 0------ 0------ 0------ 0--|---- 2---------------------- 2 0|
A|--------------------------------|--------------------------------|
E| 3-------------- 3--------------| 3-------------- 3--------------|
http://classicalguitartablature.blogspot.com/
E|---------------------- 3---- 0--|---------------------------- 0--|
B|------------ 3-------- 3---- 1--|------------ 1------ 1 1-- 3----|
G|------ 0-------------------- 0--|-------- 0---------- 0 0-- 0----|
D|-- 0---------------- 0----------|---- 2-------------- 2 2-- 2----|
A|--------------------------------|--------------------------------|
E| 3------------ 3----------------| 3-------------- 3--------------|
http://classicalguitartablature.blogspot.com/
E|--------------------------------|--------------------------------|
B| 3------ 0----------------------|--------------------------------|
G| 0---- 0-- 2 0---------- 0------|-------- 0-------------- 0------|
D| 0---------------- 2-------- 2 0|-- 0-------- 0 2---- 2------ 2--|
A|--------------------------------|--------------------------------|
E| 3-------------- 3------------ 3|---------------- 3--------------|
http://classicalguitartablature.blogspot.com/
E|--------------------------------|--------------------------------|
B|-------- 0----------------------|---------------------------- 3--|
G|-------- 0------ 2------ 0------| 2------ 2-------------- 2-- 2--|
D|---- 0------ 0------ 0------ 0--|---- 4------ 4------ 4----------|
A|--------------------------------| 5-------------- 5--------------|
E| 3-------------- 2------ 0------|------------------------------ 2|
http://classicalguitartablature.blogspot.com/
E|--------------------------------|--------------------------------|
B|------ 3-- 0------------------ 0|--------------------------------|
G|-- 2-------------- 2------ 0-- 0|------ 0---------- 2---- 2------|
D|--------------------------------|-- 0-------- 0------ 0------ 0--|
A|--------------------------------|--------------------------------|
E|------------------------------ 3|---------------- 2--------------|
http://classicalguitartablature.blogspot.com/
E|-------------- 7----------------|---------------- 5---------- 5--|
B|------ 3------ 7--------10------| 8-------------- 2---------- 7--|
G|-------- 2------ 7-- 7-- 7------| 9---- 9-------- 2---------- 7--|
D|---- 0------ 0-------------- 9--|-- 9-------- 9------ 2----------|
A|--------------------------------|---------------- 0------ 4------|
E| 1-------------- 3------ 7------| 8------------------------------|
http://classicalguitartablature.blogspot.com/
E|---------------- 7--------------|--------------------------------|
B|------------ 7-- 8----10------ 8|------------ 8-- 7--------------|
G|-------- 7---- 7------ 7------ 9|------ 9-------- 7---- 9--------|
D|---- 7-------------- 9 9---- 9--|---- 9-------------- 7------ 7--|
A| 5--------------10--------------|------------------------------ 5|
E|------------------------ 7------| 8-------------- 8------ 9------|
http://classicalguitartablature.blogspot.com/
E| 0------------------------------|---------- 3---- 5------ 7-- 3--|
B| 3-- 3---------- 0-- 3----------|------ 5-------- 7------ 7-- 0--|
G| 4---------- 4-- 0---------- 0--|------ 4-------- 5-- 5------ 0--|
D|-------- 5------ 0---- 0--------|---- 5--------------------------|
A|--------------------------------| 3-------------- 6--------------|
E|---------------- 0--------------|--------------------------------|
http://classicalguitartablature.blogspot.com/
E|---------------- 7--------------|--------------------------------|
B|-------- 0------ 8------10------| 8------------ 7----------------|
G|---- 0------ 0-- 7------ 7------| 9------ 9---- 7------ 9--------|
D|-------------------- 9-- 9-- 9--|---- 9------ 9 7---- 7------ 7--|
A|----------------10--------------|------------------------------ 5|
E| 0---------------------- 7------| 8-------------- 8------ 9------|
http://classicalguitartablature.blogspot.com/
E| 0------------ 0---- 3----------|--------------------------------|
B| 3-- 3---------- 0-- 0----------|------ 8----10 8-------- 7-- 8--|
G| 4---------- 4-- 0-------- 0----|------ 9---- 9 8------------ 7--|
D|-------- 5------------ 0--------|---- 9-------------- 7------ 5--|
A|--------------------------------|--------------------------------|
E|---------------- 0------------ 8|---------------- 7--------------|
http://classicalguitartablature.blogspot.com/
E|--------------------------------|--------------------------------|
B|--------------------------------|--------------------------------|
G|-------- 7-- 5------------------| 6------------------------------|
D|---- 5-- 5-- 7------------------| 5------------------------------|
A| 7---------- 6------------------|--------------------------------|
E|---------------------- 7---- 6--| 5------------------------------|
http://classicalguitartablature.blogspot.com/
E|-------------------- 7----------|--------------------------------|
B|------------------------------10|---------- 8---------- 8------ 7|
G|--------------------------------|---------- 9------ 9---------- 7|
D|--------------------------------|-------- 9---- 9------------ 7--|
A|--------------------------------|--------------------------------|
E|--------------------------------|-------- 8------------------ 8--|
http://classicalguitartablature.blogspot.com/
E|-------------------- 0----------|-------- 0---- 3----------------|
B|-------------------- 3-- 3------|-------- 0----------------------|
G|-------- 9-------- 4------------|-- 4---- 0-------------- 0------|
D|-------- 7-------------------- 5|------------------ 0------------|
A|------------------ 5------------|---------------------------- 0--|
E|-------- 9----------------------|-------- 0----------------------|
http://classicalguitartablature.blogspot.com/
E|------ 0---- 3---- 5---------- 7|--------------------------------|
B|------ 1---- 1---- 3---------- 5|--------------------------------|
G|------------ 0---- 2---------- 5|--------------------------------|
D|-- 2-------------------- 4------|------ 5------------------------|
A|--------------------------------|--------------------------------|
E|------------ 3---- 2-------- 0--|--------------------------------|
http://classicalguitartablature.blogspot.com/
E|---- 3--------------------------|--------------------------------|
B|---- 3--------------------------|--------------------------------|
G|-- 4----------------------------|--------------------------------|
D|--------------------------------|--------------------------------|
A| 5------------------------------|--------------------------------|
E|--------------------------------|--------------------------------|
http://classicalguitartablature.blogspot.com/

0 ความคิดเห็น:

แสดงความคิดเห็น