To celebrate the anniversary, I am giving you (finally...) : iPhone LickByNeck !!!!!!

Careless Whisper (BASIC)

George Michael's tune fingerstyle chord melody guitar BASIC arrangement played in the key of Em.

Careless Whisper - Georg Michael - BASIC ARRANGEMENT played in the key of Em
http://classicalguitartablature.blogspot.com/
E| 2-- 0-------- 2-- 0------------|--------------------------------|
B| 0-- 0 0------ 0---- 0-------- 3|-- 1------------ 3-- 1----------|
G| 0------ 0-- 0 0-------------- 0|------ 0---- 0-- 0---- 0--------|
D|---------- 2-------------- 2-- 2|-------- 2------ 2-------- 2-- 2|
A|--------------------------------| 0-------------- 0------------ 3|
E| 0-------------- 0--------------|--------------------------------|
http://classicalguitartablature.blogspot.com/
E|--------------------------------|--------------------------------|
B| 1-- 0--------------------------|--------------------------------|
G| 0------ 0----------------------|------------------ 0-- 2---- 3--|
D|------------ 2-------------- 2--|------ 0---- 2 4----------------|
A|---------------- 3--------------| 2-- 3--------------------------|
E|--------------------------------|--------------------------------|
http://classicalguitartablature.blogspot.com/

http://classicalguitartablature.blogspot.com/
E|--------------------------------|--------------------------------|
B| 0-- 0--------------------------|--------------------------------|
G| 0-- 0------ 2------ 0----------|--------------------------------|
D| 0-- 0---------------------- 2--|-------------------------- 2----|
A|--------------------------------| 0------------ 0 0-- 0---- 2----|
E| 0---------- 0------------------|--------------------------------|
http://classicalguitartablature.blogspot.com/
E|--------------------------------|--------------------------------|
B| 0---- 1---------------------- 0|--------------------------------|
G| 0---- 0---- 2-------- 0------ 2|---- 2---- 0--------------------|
D| 2---- 2---- 2---- 2-------- 2 0|---- 0-------------- 0-- 4------|
A| 3---------- 3---------------- 2|---------- 2--------------------|
E|--------------------------------|--------------------------------|
http://classicalguitartablature.blogspot.com/
E|--------------------------------|--------------------------------|
B|-------------- 0------ 0--------|------------ 3-- 1--------------|
G|------ 0 2---------- 2------ 2--|-------- 0-- 0---- 0---- 0 0----|
D|-- 2-- 4---------- 4------ 4----|---- 2 4-- 2-------- 2------ 0--|
A|--------------------------------| 0-------------- 0---------- 2--|
E| 0------------------------------|--------------------------------|
http://classicalguitartablature.blogspot.com/
E|--------------------------------|--------------------------------|
B| 0-- 1-- 0 1-- 0-- 1-- 0--------| 0-- 0--------------------------|
G| 0-- 0-- 0 0-- 0-- 0-- 0-- 0----| 2-- 2---- 2---- 0-- 0----------|
D| 2-- 2-- 2 2-- 2-- 2------ 2-- 2| 0-- 0---- 0---- 0-- 0---- 4----|
A| 3-------------- 3--------------| 2-------- 2---- 2-------- 2----|
E|--------------------------------|--------------------------------|
http://classicalguitartablature.blogspot.com/
E|---- 3 3-- 2 2 2---- 0-------- 3|-- 0-- 3-- 0---- 5 3-- 2-- 0----|
B|------ 0-- 0 0 0-- 0 0-------- 1|-- 1-- 1------ 0 0 0-- 0--------|
G|---- 4 4-- 2 2 2-- 0 0---- 0----| 0 0-- 0---- 0-- 5 4-- 2------ 0|
D| 2---------------------- 0------|---------------------------- 0--|
A|--------------------------------| 0------ 0------ 0------ 0------|
E| 0------------------------------|--------------------------------|
http://classicalguitartablature.blogspot.com/
E|-- 3-- 3 3 2 2 2-- 0 0------ 0 2|-- 2-- 2---------------------- 3|
B|-- 1-- 1-- 1 1 1-- 1 1-------- 3|-- 3-- 3-- 5 3 5---- 3-------- 0|
G|-- 0-- 0 0 0 0 0 0 0 0---- 0-- 2|-- 2-- 2-- 2 2 2---- 2------ 2 4|
D|------------------------ 2------|---------- 4 4 4---- 4---- 4-- 4|
A| 3------ 3------ 3---- 3------ 2|-------- 2------ 2------ 2------|
E|--------------------------------|--------------------------------|
http://classicalguitartablature.blogspot.com/
E|---- 3 3-- 2 2 2-- 0 0-------- 3|-- 0-- 3-- 0---- 5 3-- 2-- 0----|
B|---- 0 0-- 0 0 0-- 0 0------ 0 1|-- 1-- 1------ 0 0 0-- 0--------|
G|---- 4 4-- 2 2 2-- 0 0---- 0-- 0| 0 0-- 0---- 0-- 5 4-- 2------ 0|
D|------------------------ 0------|---------------------------- 0--|
A|--------------------------------| 0------ 0------ 0------ 0------|
E| 0------ 0------ 0--------------|--------------------------------|
http://classicalguitartablature.blogspot.com/
E|-- 3-- 3 3 2 2 2-- 0 0------ 0 2| 2-- 0---- 2---- 3-- 3-- 2-- 0 7|
B|-- 1-- 1-- 1 1 1-- 1 1-------- 0| 0---- 0-- 0 0-- 0 0---- 0------|
G|-- 0-- 0 0 0 0 0 0 0 0---- 0-- 2| 2---- 2---- 2---- 2------ 2----|
D|------------------------ 2------|--------------------------------|
A| 3------ 3------ 3---- 3------ 2|-------- 2------ 2------ 2------|
E|--------------------------------|--------------------------------|
http://classicalguitartablature.blogspot.com/
E|---- 5 5-- 3-- 7-- 5 3 0---- 0 7|---- 5 5-- 3-- 7 5-- 3---- 0----|
B|---- 0 0------ 0-- 0 0 0--------| 0-- 0 0-- 0------ 0 0 0------ 8|
G| 7-- 5 5 4-- 0 7-- 5 4 0-- 0----| 7-- 5 5 4 4------ 5 4---- 0-- 9|
D|-------------------------- 0----|------------------------------10|
A|--------------------------------| 0------ 0------ 0------ 0------|
E| 0------ 0------ 0--------------|--------------------------------|
http://classicalguitartablature.blogspot.com/
E|--------------------------------|---------------------------- 0 7|
B|-- 8-- 8-- 8--10--10 8 8-- 8----| 7-- 7-- 7-- 7-- 7 8--1010------|
G|-- 9------ 9-- 9-- 9 9 9------ 9|-- 9-- 9 7 9-- 9-- 7-- 7---- 9--|
D|--10--10--10--10--101010----10 7|---------------- 7 7-- 7--------|
A|--------------------------------|--------------------------------|
E| 8------ 8------ 8------ 8---- 7|-------- 7------ 7------ 7------|
http://classicalguitartablature.blogspot.com/
E|---- 5 5-- 3-- 7-- 5 3 0---- 0 7|---- 5 5-- 3-- 7 5-- 3---- 0----|
B|---- 0 0------ 0-- 0 0 0--------| 0-- 0 0-- 0------ 0 0 0------12|
G| 7-- 5 5 4-- 0 7-- 5 4 0-- 0----| 7-- 5 5 4 4------ 5 4---- 0----|
D|-------------------------- 0----|--------------------------------|
A|--------------------------------| 0------ 0------ 0------ 0------|
E| 0------ 0------ 0--------------|--------------------------------|
http://classicalguitartablature.blogspot.com/
E|12--------10--10-- 8-- 8------ 7|--------------------------------|
B|------12-- 8-- 8-- 8-- 8--12-- 7|---------- 710-- 8--------------|
G|12--12---- 9-- 9-- 9-- 9------ 7|------ 7---- 7-- 7---- 9---- 9--|
D|--------------------------------|---- 7---- 7-------------- 7----|
A|--------------------------------|--------------------------------|
E| 8------ 8------ 8------ 8------| 7------ 7------ 7-- 7-- 7------|
http://classicalguitartablature.blogspot.com/
E|--------12 1------------10------|------12---------------------- 5|
B|---- 0-- 0-------------- 013----|------13--------------12------ 5|
G|---- 012--11------11----11--12--|------12------12------12--1412 4|
D|---- 0----------------------14--|--14--------14----14--14--1414--|
A|------------------------------ 0|------------------------------ 3|
E| 0------------------------------|--------------------------------|
http://classicalguitartablature.blogspot.com/
E|-- 3-------------- 3-- 3 3 3----| 5---- 2------------------------|
B|-- 5---------------- 5 5-- 5----| 3---- 3-- 5 3-- 5-- 3----------|
G|---- 4-- 4---------- 4 4 4 4----| 2---- 2-- 2 2-- 2-- 2------ 2--|
D|--------------------------------|---- 4---- 4 4-- 4------ 4------|
A|-------------- 3 3--------------| 2-------------- 2--------------|
E|--------------------------------|--------------------------------|
http://classicalguitartablature.blogspot.com/
E|-------------- 2-- 0---- 2-- 0--|-------------- 2---- 0-- 2-- 0--|
B|---- 0---- 0 0 0---- 0-- 0------|---- 1---- 1---- 1-- 1-- 1------|
G|---- 0---- 0 0-- 0-- 0-- 0-- 0--|---- 0---- 0---- 0-- 0-- 0-- 0--|
D|---- 0---- 0 0------------------|---- 2---- 2-- 2----------------|
A|--------------------------------| 0-------- 0--------------------|
E| 0-------- 0--------------------|--------------------------------|
http://classicalguitartablature.blogspot.com/
E|-------------- 2-- 0---- 2-- 0--|---------------- 2------ 2------|
B|---- 0---- 0-- 0-- 0---- 0-- 0--|---- 3---- 3---- 3-- 5-- 3-- 5--|
G|---- 0---- 0-- 0-- 0---- 0-- 0--|---- 2---- 2---- 2-- 2-- 2-- 2--|
D|---- 2---- 2 2------------------|---- 4---- 4-- 4---- 4------ 4--|
A| 3-------- 3--------------------| 2-------- 2--------------------|
E|--------------------------------|------------------------------ 0|
http://classicalguitartablature.blogspot.com/
E| 0------------------------------|--------------------------------|
B| 3------------------------------|--------------------------------|
G| 0-- 0--------------------------|--------------------------------|
D|-------- 4----------------------|--------------------------------|
A|--------------------------------|--------------------------------|
E|--------------------------------|--------------------------------|
http://classicalguitartablature.blogspot.com/

0 ความคิดเห็น:

แสดงความคิดเห็น