To celebrate the anniversary, I am giving you (finally...) : iPhone LickByNeck !!!!!!

Dancing Queen (BASIC)

ABBA's classic tune fingerstyle chord melody guitar BASIC arrangement played in the key of G.

http://classicalguitartablature.blogspot.com/
Dancing Queen - ABBA - BASIC ARRANGEMENT played in the key of G
http://classicalguitartablature.blogspot.com/
E|--------------------------------|--------------------------------|
B| 0-- 0------ 0------------------| 1-- 1------ 1---------- 0------|
G| 0-- 0-- 0-- 0------ 0-- 2------| 0-- 0------ 0------ 0------ 2 0|
D| 0-- 0------ 0---- 0------------| 2-- 2------ 2------------------|
A|--------------------------------|--------------------------------|
E| 3---------- 3------------------| 3---------- 3------------------|
http://classicalguitartablature.blogspot.com/
E|--------------------------------|--------------------------------|
B|------ 0---- 0---------- 0------| 1---------- 1---------- 1------|
G| 2---------- 0------ 0----------| 0---------- 0------ 0----------|
D| 0---------- 0---- 0-------- 0--| 2---- 2---- 2---- 2------ 2----|
A|--------------------------------|--------------------------------|
E| 3---------- 3------------------| 3---------- 3------------------|
http://classicalguitartablature.blogspot.com/
http://classicalguitartablature.blogspot.com/
E|--------------------------------|--------------------------------|
B| 0---------- 0-------- 3--------| 1-- 1------ 1---------- 0------|
G| 0---------- 0---- 0------------| 0-- 0------ 0------ 0------ 2 0|
D| 0---- 0-------- 0---------- 0--| 2-- 2------ 2------------------|
A|--------------------------------|--------------------------------|
E| 3---------- 3------------------| 3---------- 3------------------|
http://classicalguitartablature.blogspot.com/
E|--------------------------------|--------------------------------|
B|------ 0---- 0---------- 0------| 1---------- 1---------- 1------|
G| 2---------- 0------ 0----------| 0---------- 0------ 0----------|
D| 0---------- 0---- 0-------- 0--| 2---- 2---- 2---- 2------ 2----|
A|--------------------------------|--------------------------------|
E| 3---------- 3------------------| 3---------- 3------------------|
http://classicalguitartablature.blogspot.com/
E|------------------------ 0------|--------------------------------|
B| 0-- 3-- 3 3-- 3 3-- 3-- 3------|-------- 1-- 1---------- 1------|
G| 0-- 0-- 0-- 0 0 0-- 0-- 0------|-------- 0-- 0---------- 0------|
D| 0-- 0-- 0-- 0 0 0-- 0------ 0--|---- 2------------ 2-------- 2--|
A|--------------------------------|--------------------------------|
E| 3-------------- 3--------------| 3------------ 3----------------|
http://classicalguitartablature.blogspot.com/
E|--------------------------------|--------------------------------|
B| 0-- 3 3---- 3 3 3-- 3-- 0------|--------------------------------|
G| 0-- 0-- 0-- 0 0 0-- 0-- 0------|-------- 0---- 0-------- 0------|
D| 0-- 0-- 0-- 0 0 0-- 0-- 0-- 0--|---- 0------ 0------ 0------ 0--|
A|--------------------------------|--------------------------------|
E| 3-------------- 3--------------| 0-------------- 0--------------|
http://classicalguitartablature.blogspot.com/
E|--------------------------------|--------------------------------|
B|---------------- 0--------------|---------------- 0--------------|
G| 2-- 2---- 2------------ 2------| 2---- 2-- 2------------ 2-- 0--|
D| 4-- 4---- 4-------- 4------ 4--| 4---- 4-- 4-------- 4----------|
A| 5---------- 5------------------| 5---------- 5------------------|
E|--------------------------------|--------------------------------|
http://classicalguitartablature.blogspot.com/
E|--------------------------------|--------------------------------|
B|------------------ 0------------|------------------------ 0------|
G|---------------- 0------ 0------| 0---- 0---- 0------ 0---- 0----|
D| 0-- 2---- 2---------------- 2--| 2---- 2---- 2---- 2------------|
A|--------------------------------|--------------------------------|
E| 0-------- 0--------------------| 0---------- 0------------------|
http://classicalguitartablature.blogspot.com/
E|-------------------- 3------ 0--|--------------------------------|
B| 0-- 3-- 3 3-- 3 3-- 3------ 1--|-------- 1---- 1----------------|
G| 0-- 0-- 0 0-- 0 0---------- 0--|-------- 0---- 0-------- 0------|
D| 0-- 0-- 0-- 0 0 0------ 0------|---- 2------ 2------ 2------ 2--|
A|--------------------------------|--------------------------------|
E| 3-------------- 3--------------| 3-------------- 3--------------|
http://classicalguitartablature.blogspot.com/
E|--------------------------------|--------------------------------|
B| 0-- 3-- 3-- 3 3 3-- 3------ 0--|--------------------------------|
G| 0-- 0-- 0-- 0 0 0-- 0------ 0--|-------- 0---- 0-------- 0------|
D| 0-- 0-- 0-- 0 0 0------ 0------|---- 2------ 2------ 2------ 2--|
A|--------------------------------|--------------------------------|
E| 3-------------- 3--------------| 0-------------- 0--------------|
http://classicalguitartablature.blogspot.com/
E|--------------------------------|--------------------------------|
B|---------------- 0--------------|---------------- 0--------------|
G| 2-- 2---- 2------------ 2------| 2---- 2-- 2------------ 2-- 0--|
D| 4-- 4---- 4-------- 4------ 4--| 4---- 4-- 4-------- 4----------|
A| 5---------- 5------------------| 5---------- 5------------------|
E|--------------------------------|--------------------------------|
http://classicalguitartablature.blogspot.com/
E|--------------------------------|--------------------------------|
B|------------------ 0------------|------ 0-------------------- 0--|
G|---------------- 0------ 0------| 0---- 0---- 0-- 0---- 2--------|
D| 0-- 2---- 2---------------- 2--| 2---- 2---- 2------------------|
A|--------------------------------|--------------------------------|
E| 0-------- 0--------------------| 0---------- 0------------------|
http://classicalguitartablature.blogspot.com/
E|--------------------------------|-------------------- 0------ 2--|
B| 0---- 1---- 1---------- 1-- 0--|---------------- 3--------------|
G| 2---- 2---- 2------ 2----------| 2---- 2---- 2 2----------------|
D| 2---- 2---- 2---- 2------------| 4---- 4-- 4---- 4--------------|
A| 0---------- 0------------------| 5---------- 5------------------|
E|--------------------------------|--------------------------------|
http://classicalguitartablature.blogspot.com/
E| 2---- 3---- 3------------------| 2---- 3---- 3---------- 5-- 3 2|
B| 0---- 0---- 0---------- 0------| 1---- 1---- 1------ 1 0--------|
G| 0---- 0---- 0------ 0----------| 0---- 0---- 0---- 0------------|
D|------------------ 0-------- 0--|--------------------------------|
A|--------------------------------|--------------------------------|
E| 3---------- 3------------------| 3---------- 3------------------|
http://classicalguitartablature.blogspot.com/
E| 2---- 3---- 3------------------|--------------------------------|
B| 0---- 0---- 0-------- 0------ 1|------ 1---- 1---------- 1------|
G| 0---- 0---- 0------ 0------ 0 0|------ 0---- 0------ 0----------|
D|------------------ 0------ 0----| 2---- 2---- 2---- 2-------- 2--|
A|--------------------------------|--------------------------------|
E| 3---------- 3------------------| 3---------- 3------------------|
http://classicalguitartablature.blogspot.com/
E| 2---- 3---- 3------------------| 2---- 3---- 3---------- 5-- 3 2|
B| 0---- 0---- 0---------- 0------| 1---- 1---- 1------ 1 0--------|
G| 0---- 0---- 0------ 0----------| 0---- 0---- 0---- 0------------|
D|------------------ 0-------- 0--|--------------------------------|
A|--------------------------------|--------------------------------|
E| 3---------- 3------------------| 3---------- 3------------------|
http://classicalguitartablature.blogspot.com/
E|------ 7---- 7------------------|--------------------------------|
B|10----10----10--------10------ 8|---- 8--------------------------|
G| 7---- 7---- 7---- 7-------- 7 7|---- 7------ 7---------- 7------|
D| 9-------------- 7------------ 9|---- 9------ 9------ 9------ 9--|
A|10---------- 9------------------| 7------------------------------|
E|--------------------------------|------------10------------------|
http://classicalguitartablature.blogspot.com/
E| 7-- 5------ 5---------------- 7|---- 5------ 5------------------|
B| 7-- 7------ 7------ 7------ 7 4|---- 4------ 4------ 4-- 4------|
G| 7-- 7------ 7---- 7---- 7---- 4|---- 4------ 4---- 4-------- 4--|
D|--------------------------------|--------------------------------|
A| 5---------- 5------------------| 6---------- 6------------------|
E|--------------------------------|--------------------------------|
http://classicalguitartablature.blogspot.com/
E|--------------------------------|---------------- 7--------------|
B| 8----10---- 7-- 8--10---- 7----| 8 7------------10--10---- 8-- 7|
G| 7---- 7---- 7-- 9-- 9---- 9----| 9---- 9-------- 9------------ 7|
D| 9---- 9---- 9-- 9-- 9---- 9-- 7|------------ 7------------------|
A| 7------------------------------|--------------------------------|
E|----------------10------------ 9|---------------- 9--------------|
http://classicalguitartablature.blogspot.com/
E|--------------------------------|------------------------ 5------|
B|---- 8------ 8------------------| 7---- 8---- 8------ 8-- 5 8 7--|
G|---- 7------ 7------ 7------ 7--| 5---- 5---- 5------ 5-- 5---- 5|
D| 7-- 7------ 7---- 7-------- 5--| 5---- 5---- 7------ 7---- 7-- 7|
A|--------------------------------|------------ 5------------------|
E| 8---------- 8---------- 7------| 5------------------------------|
http://classicalguitartablature.blogspot.com/
E|------------------------10------| 8------------------------------|
B| 7---- 8---- 8------------------| 8-- 8------ 8----------1210-- 8|
G| 7---- 7---- 7------ 7----------| 9-- 9------ 9------ 9----------|
D| 9---- 9---- 9---- 9-------- 9--|----10------10----10------------|
A|10----------10------------------|--------------------------------|
E|--------------------------------| 8---------- 8------------------|
http://classicalguitartablature.blogspot.com/
E|------ 7---- 7------------------|--------------------------------|
B|10----10----10----------10------| 5-- 5------ 5---------- 5------|
G| 7---- 7---- 7------ 7------ 7--| 5-- 5------ 5------ 5----------|
D| 9---------------- 9------------| 5---- 5---- 5---- 5-------- 5--|
A|10----------10------------------|--------------------------------|
E|--------------------------------| 8---------- 8------------------|
http://classicalguitartablature.blogspot.com/
E|--------------------------------|--------------------------------|
B| 0---------- 0-------- 3--------| 1-- 1------ 1---------- 0------|
G| 0---------- 0---- 0------------| 0-- 0------ 0------ 0------ 2 0|
D| 0---- 0-------- 0---------- 0--| 2-- 2------ 2------------------|
A|--------------------------------|--------------------------------|
E| 3---------- 3------------------| 3---------- 3------------------|
http://classicalguitartablature.blogspot.com/
E|--------------------------------|--------------------------------|
B|------ 0---- 0---------- 0------| 1---------- 1---------- 1------|
G| 2---------- 0------ 0----------| 0---------- 0------ 0----------|
D| 0---------- 0---- 0-------- 0--| 2---- 2---- 2---- 2------ 2----|
A|--------------------------------|--------------------------------|
E| 3---------- 3------------------| 3---------- 3------------------|
http://classicalguitartablature.blogspot.com/
E|--------------------------------|--------------------------------|
B| 1---------- 3---------- 1------| 1---------- 3---------- 1------|
G| 0---------- 0---------- 2------| 0---------- 0---------- 2------|
D| 2---------- 0---------- 2------| 2---------- 0---------- 2------|
A| 3---------- 2---------- 0------| 3---------- 2---------- 0------|
E|--------------------------------|------------------------------ 3|
http://classicalguitartablature.blogspot.com/
E|--------------------------------|--------------------------------|
B|-- 3----------------------------|--------------------------------|
G| 0------------------------------|--------------------------------|
D| 0------------------------------|--------------------------------|
A|--------------------------------|--------------------------------|
E|--------------------------------|--------------------------------|
http://classicalguitartablature.blogspot.com/

0 ความคิดเห็น:

แสดงความคิดเห็น