To celebrate the anniversary, I am giving you (finally...) : iPhone LickByNeck !!!!!!

Europa - Santana

Santana's tune fingerstyle chord melody guitar BASIC arrangement played in the key of Am.

Europa - Santana - BASIC ARRANGEMENT played in the key of Am
http://classicalguitartablature.blogspot.com/
E|-------- 5-- 7-- 8-- 7---- 5----| 1------------------------------|
B|-- 5------------------------ 8--| 1------------------------------|
G|--------------------------------| 2------ 2-------------- 2------|
D|--------------------------------|---- 3-------------- 3------ 3--|
A|--------------------------------|--------------------------------|
E|--------------------------------| 3------------ 3 3--------------|
http://classicalguitartablature.blogspot.com/
E|---------- 3 5 7-- 5-- 3------ 0|--------------------------------|
B|------ 6-- 3 3 3-- 3-- 3-- 3-- 0|--------------------------------|
G|---- 4 4-- 4 4 4-- 4-- 4-- 4-- 0|-------- 0-------------- 0------|
D|---- 3 3------------------ 3----|---- 2-------------- 2------ 2--|
A|------------------------------ 3|-------------- 3 3--------------|
E| 3-------------- 3--------------|--------------------------------|
http://classicalguitartablature.blogspot.com/
E|-------------- 5----------------|--------------------------------|
B|-- 5-- 6-- 8-- 5-- 8---- 6---- 3|---------- 5-- 3----------------|
G|-- 5-- 5-- 5-- 5-- 5---- 5 5-- 5|------ 5---- 5 5------ 5--------|
D|---- 5-- 5 5------ 5---- 5------|-- 3-------------- 3-------- 3--|
A| 8------------ 8-------------- 5|---------------- 5--------------|
E|--------------------------------|--------------------------------|
http://classicalguitartablature.blogspot.com/
E|------ 0-- 1-- 3-- 1---- 0------|--------------------------------|
B|-- 3---------- 0---- 0---- 3 1--|------------ 1---------------- 1|
G|-- 1---------- 1---- 1------ 0--|-------- 0------------ 0------ 0|
D|-- 0------------------------ 2--|---- 2-------- 2---- 2------ 2 2|
A|--------------------------------| 0-------------- 0--------------|
E| 0-------------- 0--------------|--------------------------------|
http://classicalguitartablature.blogspot.com/
E|-------- 5-- 7-- 8-- 7---- 5----| 1------------------------------|
B|-- 5------------------------ 8--| 1------------------------------|
G|--------------------------------| 2------ 2-------------- 2------|
D|--------------------------------|---- 3-------------- 3------ 3--|
A| 0------------------------------|--------------------------------|
E|--------------------------------| 3------------ 3 3--------------|
http://classicalguitartablature.blogspot.com/
E|---------- 3 5 7-- 5-- 3------ 0|--------------------------------|
B|------ 6-- 3 3 3-- 3-- 3-- 3-- 0|--------------------------------|
G|---- 4 4-- 4 4 4-- 4-- 4-- 4-- 0|-------- 0-------------- 0------|
D|---- 3 3------------------ 3----|---- 2-------------- 2------ 2--|
A|------------------------------ 3|-------------- 3 3--------------|
E| 3-------------- 3--------------|--------------------------------|
http://classicalguitartablature.blogspot.com/
E|-------------- 5----------------|--------------------------------|
B|-- 5-- 6-- 8-- 5-- 8---- 6---- 3|---------- 5-- 3----------------|
G|-- 5-- 5-- 5-- 5-- 5---- 5 5-- 5|------ 5---- 5 5------ 5--------|
D|---- 5-- 5 5------ 5---- 5------|-- 3-------------- 3-------- 3--|
A| 8------------ 8-------------- 5|---------------- 5--------------|
E|--------------------------------|--------------------------------|
http://classicalguitartablature.blogspot.com/
E|------ 0-- 1-- 3-- 1---- 0-- 0--|--------------------------------|
B|-- 3---------- 0---- 0---- 3 2--|------------------------ 2------|
G|-- 1---------- 1---- 1------ 1--|-------- 1-------------- 1------|
D|-- 0----------------------------|---- 2-- 2---------- 2-- 2------|
A|--------------------------------| 0------------ 0 0---------- 0--|
E| 0-------------- 0--------------|--------------------------------|
http://classicalguitartablature.blogspot.com/
E|------------------------12------|12------------------------------|
B| 2--------------10--------------|10------------------------------|
G| 1---- 9------------------------|10------10------------10--------|
D| 2------------------------------|----10--------------10----------|
A| 0------------------------------|--------------------------1211--|
E|--------------------------------|10------------1010--------------|
http://classicalguitartablature.blogspot.com/
E|------10--10------------------ 7|1010 812------------10--10 8----|
B|------101310----------10---- 8 8|------ 8---------- 8 8-- 8 8----|
G|----10101010-------------- 9----|------ 9---------- 9 9-- 9 9----|
D|----10----10------10------------|--------------------------------|
A|10------------10----------------|--------------------------------|
E|------------------------------ 8|------------ 8------------------|
http://classicalguitartablature.blogspot.com/
E|----------12--12--12------10 8--|10 8 7------ 8----12------------|
B|--------10----10--10------1010--| 9 9 9------ 9-- 0-- 3 1 0------|
G|-- 9---------- 9------ 9-- 9 9--| 7 7 7-- 7-- 7-- 1---------- 1--|
D|--------------------------------|--------------------------------|
A| 8-------------- 8--------------|--------------------------------|
E|--------------------------------| 0-------------- 0--------------|
http://classicalguitartablature.blogspot.com/
E|--------10-- 9-- 5------------ 0|--------------------------------|
B|------------------ 8 5-------- 1| 1------------------------------|
G|---------------------- 7 8 5----|---- 2---------------- 2------ 2|
D|---------------------------- 7--|------ 2------------ 2---- 2-- 2|
A|------------------------------ 0|------------ 0-- 0------------ 0|
E| 0------------------------------|--------------------------------|
http://classicalguitartablature.blogspot.com/
E|--------------------------------|---- 0-------------- 0----------|
B|---------------- 0------ 1---- 1| 3-------------- 1--------------|
G|-------- 2----------------------| 0-------- 0-- 0 0---------- 0 0|
D|--------------------------------| 0-------- 0-- 0 0-------- 0----|
A|--------------------------------|--------------------------------|
E|--------------------------------| 3-------- 3---- 3-------- 3----|
http://classicalguitartablature.blogspot.com/
E|---- 0--------------------------|---- 3------------ 3------------|
B| 1------------ 1 3---- 1-- 3 1 3| 5------------ 3 5------------ 5|
G|---------- 0 0 0---- 0 0-- 0 0 4|-------------- 4-------------- 5|
D| 0-------- 0 0 0-- 0-- 0-- 0 0--| 5------ 5-- 5 5-------- 5-- 5 7|
A|--------------------------------| 3-------- 3---- 3------ 3---- 8|
E| 3-------- 3-- 3----------------|--------------------------------|
http://classicalguitartablature.blogspot.com/
E|------ 5---------- 5------------|--------------------------------|
B| 8 8------ 8-------- 8 5--------|---- 5------------ 5------------|
G|---- 5------------------ 7 5-- 5| 7-------------- 5------------ 7|
D|------------ 7-- 7---------- 7 7|---------- 7 7-- 7------ 7-- 7--|
A|-------------- 8-------------- 5|---------- 5---- 5-------- 5----|
E|--------------------------------|--------------------------------|
http://classicalguitartablature.blogspot.com/
E|---------- 5--------------------|--------------------------------|
B|---- 5-------- 8---------- 5----|------------------------ 5------|
G|-------------- 7 8 7 5-- 7-- 5--|---- 5-------- 5 5 5-- 5------ 5|
D| 6-------------------- 7--------|------ 5-------- 5 5---------- 5|
A|--------------------------------|--------------------------------|
E| 0-------------- 0--------------| 5------------ 5 5-- 5---- 5-- 5|
http://classicalguitartablature.blogspot.com/
E|--------------------------------|---- 0-------------- 0----------|
B|---------------- 0------ 1---- 1| 3-------------- 1--------------|
G|-------- 2----------------------| 0-------- 0-- 0 0---------- 0 0|
D|--------------------------------| 0-------- 0-- 0 0-------- 0----|
A|--------------------------------|--------------------------------|
E|--------------------------------| 3-------- 3---- 3-------- 3----|
http://classicalguitartablature.blogspot.com/
E|---- 0--------------------------|---- 3------------ 3------------|
B| 1------------ 1 3---- 1-- 3 1 3| 5------------ 3 5------------ 5|
G|---------- 0 0 0---- 0 0-- 0 0 4|-------------- 4-------------- 5|
D| 0-------- 0 0 0-- 0-- 0-- 0 0--| 5------ 5-- 5 5-------- 5-- 5 7|
A|--------------------------------| 3-------- 3---- 3------ 3---- 8|
E| 3-------- 3-- 3----------------|--------------------------------|
http://classicalguitartablature.blogspot.com/
E|------ 5---------- 5------------|--------------------------------|
B| 8 8------ 8-------- 8 5--------|---- 5------------ 5------------|
G|---- 5------------------ 7 5-- 5| 7-------------- 5--------------|
D|------------ 7-- 7---------- 7 7|---------- 7 7-- 7------ 7-- 7--|
A|-------------- 8-------------- 5|---------- 5---- 5-------- 5----|
E|--------------------------------|--------------------------------|
http://classicalguitartablature.blogspot.com/
E|------------ 5------------------|--------------------------------|
B|-- 5------ 5-- 8 5-------- 5----|--------------------------------|
G| 7---- 7 8-------- 7 5 5-- 7----|------ 6------ 6 6-- 6----------|
D|-------------------- 7----------|------ 6------ 6---- 6----------|
A|--------------------------------|--------------------------------|
E| 0------------ 0----------------| 5------------ 5 5-- 5------ 5--|
http://classicalguitartablature.blogspot.com/
E|------------------------12------|12------------------------------|
B|----------------10--------------|10------------------------------|
G| 6---- 9------------------------|10------10------------10--------|
D| 6------------------------------|----10--------------10----------|
A|--------------------------------|--------------------------1211--|
E| 5------------------------------|10------------1010--------------|
http://classicalguitartablature.blogspot.com/
E|------10--10------------------ 7|1010 812------------10--10 8----|
B|------101310----------10---- 8 8|------ 8---------- 8 8-- 8 8----|
G|----10101010-------------- 9----|------ 9---------- 9 9-- 9 9----|
D|----10----10------10------------|--------------------------------|
A|10------------10----------------|--------------------------------|
E|------------------------------ 8|------------ 8------------------|
http://classicalguitartablature.blogspot.com/
E|----------12--12--12------10 8--|10 8 7------ 8----12------------|
B|--------10----10--10------1010--| 9 9 9------ 9-- 0-- 3 1 0------|
G|-- 9---------- 9------ 9-- 9 9--| 7 7 7-- 7-- 7-- 1---------- 1--|
D|--------------------------------|--------------------------------|
A| 8-------------- 8--------------|--------------------------------|
E|--------------------------------| 0-------------- 0--------------|
http://classicalguitartablature.blogspot.com/
E|--------10-- 9-- 5------------ 0|--------------------------------|
B|------------------ 8 5-------- 1| 1------------------------------|
G|---------------------- 7 8 5----|---- 2---------------- 2------ 2|
D|---------------------------- 7--|------ 2------------ 2---- 2-- 2|
A|------------------------------ 0|------------ 0-- 0------------ 0|
E| 0------------------------------|--------------------------------|
http://classicalguitartablature.blogspot.com/

0 ความคิดเห็น:

แสดงความคิดเห็น