To celebrate the anniversary, I am giving you (finally...) : iPhone LickByNeck !!!!!!

Fixing A Broken Heart

Indecent Obsession's tune fingerstyle chord melody guitar BASIC arrangement played in the key of C.

Fixing A Broken Heart - Indecent Obsession - BASIC ARRANGEMENT played in the key of C
http://classicalguitartablature.blogspot.com/
E|------ 0-------- 1--------------| 0-------------------- 0---- 0--|
B|------ 1-------- 1------ 3------| 1-------------- 1 3------------|
G|------------------------ 0------|-------- 0-- 0------------------|
D|---- 2------ 2------ 2------ 2--|---- 2--------------------------|
A| 3------------------------------| 3---------------------------- 3|
E|--------------------------------|--------------------------------|
http://classicalguitartablature.blogspot.com/
E|-------- 0----------------------|---------------------- 0--------|
B|-------- 1-- 3---------- 0-- 1--|------------ 1-- 1-- 3---- 6----|
G|--------------------------------|-------- 2---- 0------------ 5--|
D|---- 2-------------- 0----------|---- 2-------- 0------------ 3--|
A|-------------- 2----------------| 0---------------------------- 5|
E|--------------------------------|-------------- 3----------------|
http://classicalguitartablature.blogspot.com/
E|---------------- 0--------------|------------------ 0-- 1-- 3----|
B|---- 6-- 6 6---- 1 3-- 1---- 3--|-------------- 3---------- 1----|
G|---- 5-- 5-- 5-- 0-- 0----------|-------------- 0---------- 0----|
D|---- 3-- 3-- 3------ 2 2--------|---- 0------ 0------------------|
A|-------------- 3----------------| 2---- 0---------------------- 3|
E|--------------------------------|-------------- 3----------------|
http://classicalguitartablature.blogspot.com/
E|------------------ 0------ 0----|-------------- 3---- 1-- 0------|
B|-- 1------ 3--------------------|------------ 1 0---- 0-- 0 6----|
G|-- 0----------------------------|-------- 0---- 0---- 0-- 0-- 5--|
D|------ 2-------------- 0--------|---- 2---------------------- 3--|
A|-------------- 2----------------| 0---------------------------- 5|
E|--------------------------------|-------------- 3----------------|
http://classicalguitartablature.blogspot.com/
E|---------------- 0--------------|--------------------------------|
B|---- 6-- 6 6---- 1 3-- 1---- 3--|-- 1 0------------------ 0 0----|
G|---- 5-- 5-- 5-- 0-- 0------ 0--|------------ 0---------- 0-- 0--|
D|---- 3-- 3-- 3------ 2 2---- 0--|------ 0------------ 0-- 0-- 0--|
A|-------------- 3----------------|--------------------------------|
E|--------------------------------| 3-------------- 3--------------|
http://classicalguitartablature.blogspot.com/
E|------------------ 0------ 0----|-------------- 3----------------|
B|---- 1-- 1-- 1-- 3---------- 1--|------ 1------ 6-- 6-- 5---- 6--|
G|---- 2-- 2-- 2-- 0--------------|------ 0------ 3-- 3-- 3---- 5--|
D|---- 2-- 2-- 2 0-------- 0------|-- 2-------------- 5-- 5---- 7--|
A| 0------------ 2----------------| 3------------ 4----------------|
E|--------------------------------|--------------------------------|
http://classicalguitartablature.blogspot.com/
E|-------------- 0----------------|--------------------------------|
B|---- 6-- 6 6-- 1-- 3-- 1 3-- 1--|------------ 1------------ 1----|
G|---- 5-- 5 5-- 0-- 0-- 0--------|---- 2---------- 2------ 2------|
D|---- 7-- 7-- 7---- 2-- 2--------|-------- 3---------- 3----------|
A| 5------------------------------|--------------------------------|
E|-------------- 0----------------| 1------------------------------|
http://classicalguitartablature.blogspot.com/
E|-------------------- 0-- 1-- 3--|--------------------------------|
B|---- 3-- 3 3---- 3---------- 1--|---------- 1---------------- 0--|
G|-------- 0-- 0-- 0---------- 0--|------ 0-------------- 0--------|
D|-------- 0-- 0-- 0--------------|-- 2-------------- 0------------|
A|--------------------------------| 3------------ 2----------------|
E| 3------------------------------|--------------------------------|
http://classicalguitartablature.blogspot.com/
E|--------10-- 8------------------|------------------------------ 0|
B|---- 8---------------------- 6--|-- 5 3---------------------- 1--|
G| 9------------------ 9------ 5--|------ 5---------------- 0------|
D|------------------------10-- 3--|------------ 3------ 2----------|
A| 0--------------10------------ 5|-------------- 3----------------|
E|--------------------------------|--------------------------------|
http://classicalguitartablature.blogspot.com/
E|------------------ 0---- 1-- 3--|-- 0-- 1---- 3------------ 0----|
B| 0 3---- 1-- 3---- 3---- 3-- 1--|-- 1-- 1-- 0------------------ 8|
G| 0 0---- 0-- 0---- 0---- 0-- 0--|-- 0-- 0---- 0-------- 0------ 7|
D|---- 0-- 0-- 0------------------|------------------ 0---------- 5|
A|--------------------------------| 3------------ 2----------------|
E| 3-------------- 3--------------|--------------------------------|
http://classicalguitartablature.blogspot.com/
E|-- 5-- 6---- 5------------------|------ 0------ 3-- 1-- 0--------|
B|---------- 8-------- 8------ 6--|---------- 6-- 1-- 1-- 1---- 3--|
G|------------ 7------ 6------ 5--|-------------- 0-- 0-- 0---- 0--|
D|-------------------- 5-- 5-- 3--|-- 3------------------------ 0--|
A|------------------------------ 5|-------------- 3----------------|
E| 6-------------- 5--------------|--------------------------------|
http://classicalguitartablature.blogspot.com/
E|------------------ 0-- 1-- 1----|-- 0----------------------------|
B|-------------- 3---------- 1----|-- 1------ 3------ 1------------|
G|-------------- 0---------- 0----|---------- 0------ 0------ 0----|
D|---- 0---- 0-- 0----------------|-------- 2------------ 2--------|
A| 2---- 0------------------------| 3------------ 3-------------- 3|
E|-------------- 3----------------|--------------------------------|
http://classicalguitartablature.blogspot.com/
E|--------------------------------|--------------------------------|
B|---------- 1---------------- 0--|------------ 8------ 6-- 5---- 2|
G|------ 0-------------- 0--------|------ 7------------------ 7-- 0|
D|-- 2-------------- 0------------| 5-- 5------------------------ 2|
A|---------------- 2--------------|--------------------------------|
E|--------------------------------| 6-------------- 6--------------|
http://classicalguitartablature.blogspot.com/
E|------------------ 0------------|------ 5---- 3---- 1------------|
B|------ 2-- 3------------------ 6|-- 8-- 6-- 6-------- 3----------|
G|------ 0-- 0-------------- 0-- 5|-- 5-- 5-- 5--------------------|
D|-- 2------------------ 2------ 7|-- 7------ 7--------------------|
A| 0------------ 0-------------- 5|--------------------------------|
E|--------------------------------|---------------- 1--------------|
http://classicalguitartablature.blogspot.com/
E|------------------ 0---- 1-- 3--|--------------------------------|
B|---- 3 3-- 3-- 3------------ 1--|---------- 1---------------- 0--|
G|---- 0 0---- 0 0------------ 0--|------ 0-------------- 0--------|
D|---- 0 0-- 0-- 0----------------|-- 2-------------- 0------------|
A|--------------------------------| 3------------ 2----------------|
E| 3-------------- 3--------------|--------------------------------|
http://classicalguitartablature.blogspot.com/
E|--------10-- 8------------------|------------------------------ 0|
B|---- 8---------------------- 6--|-- 5 3---------------------- 1--|
G| 9------------------ 9------ 5--|------ 5---------------- 0------|
D|------------------------10-- 3--|------------ 3------ 2----------|
A| 0--------------10------------ 5|-------------- 3----------------|
E|--------------------------------|--------------------------------|
http://classicalguitartablature.blogspot.com/
E|------------------ 0---- 1-- 3--|-- 0-- 1---- 3------------ 0----|
B| 0 3---- 1-- 3---- 3---- 3-- 1--|-- 1-- 1-- 0------------------ 8|
G| 0 0---- 0-- 0---- 0---- 0-- 0--|-- 0-- 0---- 0-------- 0------ 7|
D|---- 0-- 0-- 0------------------|------------------ 0---------- 5|
A|--------------------------------| 3------------ 2----------------|
E| 3-------------- 3--------------|--------------------------------|
http://classicalguitartablature.blogspot.com/
E|-- 5-- 6---- 5------------------|------ 0------ 3-- 1-- 0--------|
B|---------- 8-------- 8------ 6--|---------- 6-- 1-- 1-- 1---- 3--|
G|------------ 7------ 6------ 5--|-------------- 0-- 0-- 0---- 0--|
D|-------------------- 5-- 5-- 3--|-- 3------------------------ 0--|
A|------------------------------ 5|-------------- 3----------------|
E| 6-------------- 5--------------|--------------------------------|
http://classicalguitartablature.blogspot.com/
E|------------------ 0-- 1-- 1----|-- 0----------------------------|
B|-------------- 3---------- 1----|-- 1-------- 3---- 1------------|
G|-------------- 0---------- 0----|------------ 0------------ 0----|
D|---- 0---- 0-- 0----------------|------ 2-------------- 2--------|
A| 2---- 0---------------------- 3|---------------- 3------------ 4|
E|-------------- 3----------------|--------------------------------|
http://classicalguitartablature.blogspot.com/
E|-------------- 3----------------|--------------------------------|
B|---------- 5-- 5-- 6-- 5---- 6--|---- 5------ 3---- 1------------|
G|------ 3------ 3-- 3-- 3---- 5--|---- 5------------ 0-------- 0--|
D|-- 5-------------- 5-- 5---- 3--|-------- 3---- 2------ 2--------|
A|-------------- 4----------------| 5------------------------------|
E|--------------------------------|---------------- 0--------------|
http://classicalguitartablature.blogspot.com/
E|--------------------------------|--------------------------------|
B|------------ 1------------ 0----|-------------------- 1----------|
G|-------- 2---------------- 0----|-------------------- 0----------|
D|---- 3-------------- 0----------| 0---------------- 2------------|
A|--------------------------------|------------------ 3------------|
E| 1-------------- 3--------------|--------------------------------|
http://classicalguitartablature.blogspot.com/

0 ความคิดเห็น:

แสดงความคิดเห็น