To celebrate the anniversary, I am giving you (finally...) : iPhone LickByNeck !!!!!!

Get Here (BASIC)

Oleta Adams' classic tune fingerstyle chord melody guitar BASIC arrangement played in the key of Bb.

Get Here - BASIC ARRANGEMENT played in the key of Bb
http://classicalguitartablature.blogspot.com/
E|----13--------------13----------|----13----------1011----10------|
B|----11------------11------------|--11------------11----13--11----|
G|--10------------10--------------|10------------10-------------- 8|
D|13------------13--------------12|------------------------------12|
A|--------------------------------|--------------10----------------|
E|11----------------------------10|------------------------------ 8|
http://classicalguitartablature.blogspot.com/
E|1110--1110-------- 1---- 1-- 1--|--------------------------------|
B| 8--------11-------- 3---- 3----| 6 6 3------------ 6 3 6-- 3 6--|
G|---------------- 3--------------| 3 3 3---- 3------ 3 3 3 3-- 3--|
D|---------------- 1--------------| 5 5 5-- 5-- 5-- 5-- 5 5 5-- 5--|
A|------------------------------ 6|-------------- 6----------------|
E|---------------- 1--------------|--------------------------------|
http://classicalguitartablature.blogspot.com/
E| 3------------------------------|--------------------------------|
B| 6-- 6 3------------ 6 6-- 3 6 6|-- 6 3------ 3-- 4 3 1------ 3 1|
G| 3-- 3 3 5 3-------- 3 3-- 3 3--| 3 3 3-- 3 5 3-- 3 3------ 3----|
D|------------ 3---- 3 3 3-- 3 3--| 5---- 5-------- 1 1------------|
A| 5------------------------------| 3------------------------------|
E|---------------- 3--------------|-------------- 1-------------- 3|
http://classicalguitartablature.blogspot.com/
E|------------------ 1-- 1-- 1----|--------------------------------|
B|-------------------- 3-- 3 1----| 6 6 3------------ 6 3 6-- 3 6 6|
G|-- 3-- 3---- 3------ 3----------| 3 3 3---- 3------ 3 3 3 3-- 3 3|
D|-- 3 3---- 3-- 3-- 3------------| 5 5 5-- 5-- 5-- 5-- 5 5 5-- 5--|
A|------------------------------ 6|-------------- 6-------------- 5|
E|---------------- 3--------------|--------------------------------|
http://classicalguitartablature.blogspot.com/
E| 3------------------------------|--------------------------------|
B|-- 6-- 3------ 3-------- 3-- 3--| 4-- 3-------- 4-- 3 1----------|
G|-- 3---- 5 3 5------ 3----------| 3-- 3 3 3-- 3 3-- 3 3---- 3 3--|
D| 3---------------- 3-- 3-- 3----|-- 1-------- 1-- 1--------------|
A|--------------------------------| 3------------------------------|
E|---------------- 3--------------|-------------- 1-------------- 6|
http://classicalguitartablature.blogspot.com/
E|--------------------------------|-- 3 3--------------------------|
B|---------- 3 3 4-- 4-- 6--------|-- 3 3------ 3-- 6---- 6 8 6 6--|
G|-- 3------ 3 3 3-- 3-- 3-- 3 5 3|---------- 3---- 5-- 7 5 5 5 5--|
D| 3-- 3---- 3---- 5------ 3------|-- 5---- 5---- 5 7 7---- 7-- 7--|
A|-------------- 3------ 5------ 6|-------------- 6----------------|
E|------ 6------------------------|--------------------------------|
http://classicalguitartablature.blogspot.com/
E|---------------------------- 1 3|-- 6 3-------------- 1 3---- 1--|
B| 6---------- 3-------- 1-- 3-- 3|-- 3 3------ 3---- 3 3 3---- 3--|
G| 5-- 5-- 5-- 5 5-- 3-- 2--------| 3------ 3-------- 3-- 3 3------|
D| 3 3-- 3 3------------ 3--------| 3---- 3---- 3---------------- 5|
A| 5------------------------------|------------------------------ 6|
E|------------------------ 1------| 3------------ 1----------------|
http://classicalguitartablature.blogspot.com/
E|-------------------- 6----------|-- 3---------------- 1 1-- 1----|
B| 6 3---------------- 6----------|-- 3 6 3------------ 3-- 3------|
G| 3---- 3-- 3-- 3-- 3 5------ 3--|-- 3 3 3-- 3------ 3------------|
D|-- 5---- 5-- 5-- 5---- 5---- 3--|---- 5 5-- 5 5---- 1------------|
A|---------------------- 5------ 3|------------------------------ 6|
E|-------------------------- 3----|-------------- 1----------------|
http://classicalguitartablature.blogspot.com/
E|--------------------------------| 3------------------------------|
B| 6 6 3------------ 6 3 6-- 3 6--| 6-- 6 3------------ 6 6-- 3 6 6|
G| 3 3 3---- 3------ 3 3 3 3-- 3--| 3-- 3 3 5 3-------- 3 3-- 3 3--|
D| 5 5 5-- 5-- 5-- 5-- 5 5 5-- 5--|------------ 3---- 3 3 3-- 3 3--|
A|-------------- 6----------------| 5------------------------------|
E|--------------------------------|---------------- 3--------------|
http://classicalguitartablature.blogspot.com/
E|--------------------------------|------------------ 1-- 1-- 1----|
B|-- 6 3------ 3-- 4 3 1------ 3 1|-------------------- 3-- 3 1----|
G| 3 3 3-- 3 5 3-- 3 3------ 3----|-- 3-- 3---- 3------ 3----------|
D| 5---- 5-------- 1 1------------|-- 3 3---- 3-- 3-- 3------------|
A| 3------------------------------|------------------------------ 6|
E|-------------- 1-------------- 3|---------------- 3--------------|
http://classicalguitartablature.blogspot.com/
E|--------------------------------| 3------------------------------|
B| 6 6 3------------ 6 3 6-- 3 6 6|-- 6-- 3------ 3-------- 3-- 3--|
G| 3 3 3---- 3------ 3 3 3 3-- 3 3|-- 3---- 5 3 5------ 3----------|
D| 5 5 5-- 5-- 5-- 5-- 5 5 5-- 5--| 3---------------- 3-- 3-- 3----|
A|-------------- 6-------------- 5|--------------------------------|
E|--------------------------------|---------------- 3--------------|
http://classicalguitartablature.blogspot.com/
E|--------------------------------|--------------------------------|
B| 4-- 3-------- 4-- 3 1----------|-------------------------- 3 3--|
G| 3-- 3 3 3-- 3 3-- 3 3---- 3-- 3|---- 3--------------------------|
D|-- 1-------- 1-- 1--------------|-- 3-- 3---------- 3---------- 1|
A| 3------------------------------|------------------------------ 3|
E|-------------- 1----------------| 6-------------- 6--------------|
http://classicalguitartablature.blogspot.com/
E|--------------------------------|----13--------------13----------|
B| 4-- 3 1-------- 4 3-- 1--------|----11------------11------------|
G| 3-------- 3---- 3------ 3------|--10------------10--------------|
D|-------------- 1----------------|13------------13--------------12|
A|--------------------------------|--------------------------------|
E|-------------- 1----------------|11----------------------------10|
http://classicalguitartablature.blogspot.com/
E|----13----------1011----10------|1110--1110----------------------|
B|--11------------11----13--11----| 8--------11---- 4 3-- 4---- 3--|
G|10------------10-------------- 8|---------------- 3-- 3----------|
D|------------------------------12|-------------- 1----------------|
A|--------------10----------------|--------------------------------|
E|------------------------------ 8|-------------- 1----------------|
http://classicalguitartablature.blogspot.com/
E|--------------------------------|--------------------------------|
B|--------------------------------|--------------------------------|
G| 3-------------- 3--------------|--------------------------------|
D|---------------- 3--------------|--------------------------------|
A|--------------------------------|--------------------------------|
E|---------------- 6--------------|--------------------------------|
http://classicalguitartablature.blogspot.com/

0 ความคิดเห็น:

แสดงความคิดเห็น