To celebrate the anniversary, I am giving you (finally...) : iPhone LickByNeck !!!!!!

Honesty (BASIC)

Billy Joel's classic tune fingerstyle chord melody guitar BASIC arrangement played in the key of E.

http://classicalguitartablature.blogspot.com/
Honesty - BASIC ARRANGEMENT played in the key of E
http://classicalguitartablature.blogspot.com/
E|------ 0-------------- 7--------|---------- 8-- 5------------ 4--|
B| 0---- 0-------------- 5--------|------ 8------ 2-- 2-------- 5--|
G| 0---------------- 4------ 4----|------ 9------ 4-- 4-- 4---- 4--|
D|---- 2------ 2------------------|-- 9---------------- 4----------|
A|-------------- 5----------------|-------------- 2----------------|
E| 0---------------------------- 8|------------------------------ 0|
http://classicalguitartablature.blogspot.com/
E|--------------------------------|--------------------------------|
B|---- 5 5 5-- 4 4-- 2-- 2------ 4|---- 5 4-- 2--------------------|
G|---- 4 4---- 4 2-- 2-- 2 2-- 4 4|------ 4-- 2-- 4-------- 4------|
D|---- 6 6 6-- 6 2-- 2-- 2--------|-- 4-- 4-- 2-------- 6------ 6--|
A|-------------- 0-------------- 2|------------ 0------------------|
E|--------------------------------|---------------- 4--------------|
http://classicalguitartablature.blogspot.com/
E|--------------------------------|--------------------------------|
B|---- 2 2 2---------- 2----------|--------------------------------|
G|---- 2 2 2 4-- 4-------- 1------|---------------- 2---- 1--------|
D|---- 2 2 2 2-- 2---------- 4 2--| 4-- 4-- 4-------- 2------ 4----|
A| 0------------ 4----------------| 6---------- 6-- 0------ 2------|
E|--------------------------------|--------------------------------|
http://classicalguitartablature.blogspot.com/
E|--------------------------------|---- 4--------------------------|
B|-- 5 5 5-- 4-- 4-- 2-- 2---- 2--| 4------ 4-- 2------------------|
G|-- 4 4 4-- 4-- 4------ 3-- 4----| 4------ 4-- 4 4-------- 4-- 4--|
D|-- 6 6 6-- 6-- 2----------------| 4------ 2------ 6-- 6----------|
A|--------------------------------|--------------------------------|
E| 0------------ 2-------- 2------| 2------ 3------ 4--------------|
http://classicalguitartablature.blogspot.com/
E|-------------------------- 6-- 4|--------------------------------|
B| 2-- 2 4-- 5------ 8-- 9--------| 4------ 4------------------ 4--|
G| 2-- 2 2-- 2 2 8-- 8------------| 6------ 6------ 5---- 5 6------|
D| 2-- 2 2-- 2---- 8-- 8----------|---- 4------ 4-- 4-- 4-- 4------|
A| 0------------ 6----------------|--------------------------------|
E|--------------------------------| 4-------------- 4--------------|
http://classicalguitartablature.blogspot.com/
E| 4----------------------------11|-- 8-------------------------- 9|
B| 5------ 5 7--10------10------ 9|-- 9 9------ 5---------------- 5|
G| 6-- 6-------- 8---------- 8-- 8|-- 811----11 4---------------- 6|
D|-------------------- 7----------|----10----10 6---- 6------ 6----|
A| 0------------------------------|-------------- 4----------------|
E|---------------- 7------------ 8|-------- 8------------ 7--------|
http://classicalguitartablature.blogspot.com/
E|-- 5----------------------------|--------------------------------|
B|-------- 7-- 5-- 4------ 2 2----|---- 0------ 0------------------|
G|-- 6 6---------- 2-- 2---- 1----|---- 1---- 1------ 5-- 6-- 8----|
D|-------------- 4---- 4------ 2--|---- 2 2---------- 4-- 4-- 6----|
A| 0------------ 2----------------|--------------------------------|
E|------------------------------ 0|-------------- 4-------- 6 8----|
http://classicalguitartablature.blogspot.com/
E| 4----------------------------11|-- 8-------------------------- 9|
B| 5------ 5 7--10------10------ 9|-- 9 9------ 5---------------- 5|
G| 6-- 6-------- 8---------- 8-- 8|-- 811----11 4---------------- 6|
D|-------------------- 7----------|----10----10 6---- 6------ 6----|
A| 0------------------------------|-------------- 4----------------|
E|---------------- 7------------ 8|-------- 8------------ 7--------|
http://classicalguitartablature.blogspot.com/
E|-- 5------------------ 2-- 2----|-- 0------------------ 7--------|
B|-------- 7-- 5-- 4-------- 0----|-- 0-- 0-------------- 5--------|
G|-- 6 6---------- 2-- 2---- 1----|------ 0-- 0------ 4------ 4----|
D|---------------- 4 4------------|--------------------------------|
A| 0-------------- 2--------------|-------------- 5----------------|
E|--------------------------------| 0---------------------------- 8|
http://classicalguitartablature.blogspot.com/
E|---------- 8-- 5---------- 4----|-- 4 4 4-- 4 4 5 4--------------|
B|------ 8------ 2-- 2------ 5----|-- 5-- 5-- 5 5-- 5---------- 5--|
G|------ 9------ 4-- 4-- 4-- 4----|-- 4 4 4-- 4 4-- 4---- 4--------|
D|-- 9---------------- 4----------|--------------------------------|
A|-------------- 2-------------- 4|--------------------------------|
E|--------------------------------|--------------------------------|
http://classicalguitartablature.blogspot.com/
E|-- 4-- 4 4 4-- 4----------------|------------------------ 9---- 4|
B|-- 4-- 4 4 4-- 4------ 4--------|-- 9 9 9---- 9 910 9 9-------- 5|
G|-- 2-- 2 2 2-- 2---- 2---- 2----|-- 7 7 7---- 7 7-- 7 7------ 7 6|
D|--------------------------------|-- 9 9 9---- 9 9-- 9 9----------|
A| 3------------------------------|--------------------------------|
E|------------------------------ 7|--------------------------------|
http://classicalguitartablature.blogspot.com/
E|--------------------------------|-- 2-- 2 2-- 2 2 4 2-- 2-- 2----|
B|-- 7-- 7-- 7 7-- 5--------------|-- 2-- 2 2-- 2 2-- 2-- 2-- 2----|
G|-- 6-- 6-- 6 6---- 6------ 6----|-- 2-- 2 2-- 2 2-- 2-- 2-- 2----|
D|--------------------------------|------------------------------ 6|
A|------------------------------ 0|-------------- 2----------------|
E| 6-------------------- 6--------|------------------------------ 0|
http://classicalguitartablature.blogspot.com/
E|--------------------------------|--------------------------------|
B| 7 5-- 5-- 7 5-------- 4------ 2|------------ 2-------------- 0--|
G| 4 4-- 4-- 4 4-------- 4-- 4-- 4|-------- 4---- 3----------------|
D|-- 6-- 6-- 6 6------ 6----------|---- 2-------------- 2----------|
A|--------------------------------|--------------------------------|
E|---------------- 0------------ 2|------------------------ 2------|
http://classicalguitartablature.blogspot.com/
E| 4-------- 5-- 4-------------- 0|--------------------------------|
B| 2---- 2-------- 4---- 7------ 2|------------------------ 2------|
G| 2-- 2-------- 2---- 2 5------ 2|------------------------ 2------|
D|---------------------- 4-- 4----|------------------------ 2------|
A| 2------------ 3----------------| 0---------------------- 2------|
E|------------------------ 4------|------------------------------ 0|
http://classicalguitartablature.blogspot.com/
E|--------------------------------|--------------------------------|
B|-- 5 5 5-- 4-- 4-- 2-- 2------ 4|---- 5 4-- 2--------------------|
G|-- 4 4 4-- 4-- 2-- 2-- 2 2-- 4 4|------ 4-- 2-- 4-------- 4------|
D|-- 6 6 6-- 6-- 2-- 2-- 2--------|-- 4-- 4-- 2-------- 6------ 6--|
A|-------------- 0-------------- 2|------------ 0------------------|
E|--------------------------------|---------------- 4--------------|
http://classicalguitartablature.blogspot.com/
E|--------------------------------|--------------------------------|
B|---- 2 2 2---------- 2----------|--------------------------------|
G|---- 2 2 2 4-- 4-------- 1------|---------------- 2---- 1--------|
D|---- 2 2 2 2-- 2---------- 4 2--| 4-- 4-- 4-------- 2------ 4----|
A| 0------------ 4----------------| 6---------- 6-- 0------ 2------|
E|--------------------------------|--------------------------------|
http://classicalguitartablature.blogspot.com/
E|--------------------------------|---- 4--------------------------|
B|-- 5 5 5-- 4-- 4-- 2-- 2---- 2--| 4------ 4-- 2------------------|
G|-- 4 4 4-- 4-- 4------ 3-- 4----| 4------ 4-- 4 4-------- 4-- 4--|
D|-- 6 6 6-- 6-- 2----------------| 4------ 2------ 6-- 6----------|
A|--------------------------------|--------------------------------|
E| 0------------ 2-------- 2------| 2------ 3------ 4--------------|
http://classicalguitartablature.blogspot.com/
E|-------------------------- 6-- 4|--------------------------------|
B| 2-- 2 4-- 5------ 8-- 9--------| 4------ 4------------------ 4--|
G| 2-- 2 2-- 2 2 8-- 8------------| 6------ 6------ 5---- 5 6------|
D| 2-- 2 2-- 2---- 8-- 8----------|---- 4------ 4-- 4-- 4-- 4------|
A| 0------------ 6----------------|--------------------------------|
E|--------------------------------| 4-------------- 4--------------|
http://classicalguitartablature.blogspot.com/
E| 4----------------------------11|-- 8-------------------------- 9|
B| 5------ 5 7--10------10------ 9|-- 9 9------ 5---------------- 5|
G| 6-- 6-------- 8---------- 8-- 8|-- 811----11 4---------------- 6|
D|-------------------- 7----------|----10----10 6---- 6------ 6----|
A| 0------------------------------|-------------- 4----------------|
E|---------------- 7------------ 8|-------- 8------------ 7--------|
http://classicalguitartablature.blogspot.com/
E|-- 5----------------------------|--------------------------------|
B|-------- 7-- 5-- 4------ 2 2----|---- 0------ 0------------------|
G|-- 6 6---------- 2-- 2---- 1----|---- 1---- 1------ 5-- 6-- 8----|
D|-------------- 4---- 4------ 2--|---- 2 2---------- 4-- 4-- 6----|
A| 0------------ 2----------------|--------------------------------|
E|------------------------------ 0|-------------- 4-------- 6 8----|
http://classicalguitartablature.blogspot.com/
E| 4------------------------------|--11 8----11--11--1211 9------ 9|
B| 5------ 5 7--10------10--------|-- 9 9-- 9 9-- 9------ 9------ 5|
G| 6-- 6-------- 8---------- 8----|-- 8 8-- 8 8-- 9------ 9------ 6|
D|-------------------- 7----------|--------10---------------- 9----|
A| 0------------------------------|--------------------------------|
E|---------------- 7------------ 8|---------------- 9------ 7------|
http://classicalguitartablature.blogspot.com/
E|-- 5------------------ 2-- 2----|-- 0------------------ 7--------|
B|-------- 7-- 5-- 4-------- 0----|-- 0-- 0-------------- 5--------|
G|-- 6 6---------- 2-- 2---- 1----|------ 0-- 0------ 4------ 4----|
D|---------------- 4 4------------|--------------------------------|
A| 0-------------- 2--------------|-------------- 5----------------|
E|--------------------------------| 0---------------------------- 8|
http://classicalguitartablature.blogspot.com/
E|---------- 8-- 5---------- 4----|------------ 5-- 4-------- 2----|
B|------ 8------ 2-- 2-------- 5--|-------- 5------ 2--------------|
G|------ 9------ 4-- 4-- 4---- 5--|-------- 5------ 2--------------|
D|-- 9---------------- 4----------|---- 4---------------- 2--------|
A|-------------- 2-------------- 0|---------------- 2--------------|
E|--------------------------------|--------------------------------|
http://classicalguitartablature.blogspot.com/
E|------------------ 0------------|--------------------------------|
B|------------------ 0------ 0----|--------------------------------|
G| 2---------------- 1-- 1--------|--------------------------------|
D|-------------------- 4----------|--------------------------------|
A|--------------------------------|--------------------------------|
E|---------------- 0--------------|--------------------------------|
http://classicalguitartablature.blogspot.com/

0 ความคิดเห็น:

แสดงความคิดเห็น