To celebrate the anniversary, I am giving you (finally...) : iPhone LickByNeck !!!!!!

Hooked On A Feeling (BASIC)

B.J. Thomas' classic tune fingerstyle chord melody guitar BASIC arrangement played in the key of A.

http://classicalguitartablature.blogspot.com/
Hooked On A Feeling - BASIC ARRANGEMENT played in the key of A
http://classicalguitartablature.blogspot.com/
E|------------ 5------ 7------10--|---- 9------12------ 9----------|
B|---- 5------ 5------ 5------ 9--|---- 9------------------ 9----12|
G|---- 6------ 6------ 6------ 9--|---- 9------ 9------------------|
D|---- 7--------------------------|--------------------------------|
A| 0------------------------------|11--------------11--------------|
E|--------------------------------|--------------------------------|
http://classicalguitartablature.blogspot.com/
E|-------------------------- 7-- 8|------ 7-------------- 7--------|
B|----1210------------10----10----|--10--10-- 7--10----------10----|
G| 9-- 9------12------ 9---- 7----|---- 7---- 7-- 7--------------14|
D| 9-- 9-------------- 9----------|---------------- 7 7------------|
A|10---------------------------- 9|--------------------------------|
E|--------------------------------|------------------------------13|
http://classicalguitartablature.blogspot.com/
E|13--12--------12----------------|--------------------------------|
B|15--------15----------15--14----|15--14----12----14--12----------|
G|--------------------------------|14------------------------14----|
D|------------------------------14|----14------------------------12|
A|--------------------------------|--------------------------------|
E|------------------------------ 0|------------------------------ 0|
http://classicalguitartablature.blogspot.com/
E|--------------------------------| 0------------------------------|
B|12----10-- 9----10---- 9--------|--------------------------------|
G|11------------------------11----|--------------------------------|
D|--------------------------------|--------------------------------|
A|--------------------------------|--------------------------------|
E|--------------------------------| 0------------------------------|
http://classicalguitartablature.blogspot.com/
E|---------------------------- 2--|-- 0----------------------------|
B| 2-- 5------ 5------ 5------ 0--|---------------- 0---------- 0--|
G| 2-- 2------ 2------ 2------ 1--|---------- 1------------ 1------|
D| 2-- 2------ 2------ 2----------|------ 2------------ 2----------|
A| 0------------------------------|--------------------------------|
E|--------------------------------| 0------------------------------|
http://classicalguitartablature.blogspot.com/
E|---- 0------ 2------ 0----------|--------------------------------|
B| 2-- 2------ 2------ 2-- 3-- 3--|------------ 3------------------|
G| 0------ 0-- 0------ 0-- 0-- 2--|-------- 2-------------- 2------|
D| 2---------------------- 2-- 4--|---- 4------------ 4-------- 4--|
A| 0------------------------------| 5------------------------------|
E|--------------------------------|--------------------------------|
http://classicalguitartablature.blogspot.com/
E|--------------------------------|--------------------------------|
B| 3------ 3-- 5---- 3------ 3 2--|-- 2------------------------ 0--|
G| 4---- 4---- 4---- 4------ 2----|-- 2------ 4------ 2-------- 1--|
D| 3-- 3 3-- 3------ 3-- 3-- 2----|------ 2------ 2------ 2---- 2--|
A| 5---------------------------- 0|--------------------------------|
E|--------------------------------|--------------------------------|
http://classicalguitartablature.blogspot.com/
E|--------------------------------|--------------------------------|
B|------ 2-- 0-------------- 0----|------------ 0-------- 0---- 2--|
G|------ 1-- 1---------- 1--------|------ 1------------ 2------ 2--|
D|-- 2-------------- 2------------|-- 2----------------------------|
A|--------------------------------|--------------------------------|
E| 0------------------------------| 0------------------------------|
http://classicalguitartablature.blogspot.com/
E|--------------------------------|--------------------------------|
B|------------------ 3-- 2--------|------------ 2-------------- 2--|
G|------------ 2-------------- 4--|-- 2-------- 2------ 2 4-- 2----|
D|---- 2---------------------- 3--|---- 3-------------- 3-- 3 4----|
A| 0-------------- 0--------------| 4-------------- 4--------------|
E|--------------------------------|--------------------------------|
http://classicalguitartablature.blogspot.com/
E|--------------------------------|--------------------------------|
B|-------------------- 3 2--------|------------ 2------------ 2----|
G|---------- 2-------- 2 2---- 4--|---- 2------ 2---------- 2------|
D|---- 4------ 4------ 4 4---- 5--|---- 5-------------- 5----------|
A|--------------------------------| 0-------------- 0--------------|
E| 2-------------- 2--------------|--------------------------------|
http://classicalguitartablature.blogspot.com/
E| 2---------- 0------------------|---------------- 2-- 2-- 2-- 2--|
B| 3-------------- 3--------------|---------------- 3-- 3-- 3-- 2--|
G| 2------ 2------ 2---- 2-- 2----| 1------ 1------ 1-- 1-- 1-- 2--|
D|---- 4-------------- 4----------| 2---- 2------------------------|
A| 5-------------- 5--------------|------------------------------ 0|
E|--------------------------------| 0------------------------------|
http://classicalguitartablature.blogspot.com/
E|--------------------------------|-------------- 0----------------|
B|---- 5------ 5---- 5------------|-------------- 3-- 3-- 2-- 5----|
G|---- 2------ 2------ 2------ 2--|-- 4------ 4-------------- 2----|
D|------------ 2------ 2------ 2--|---- 2---- 2-------------- 4----|
A|---------------- 0--------------|--------------------------------|
E|------------------------------ 4|-------------- 4-------------- 2|
http://classicalguitartablature.blogspot.com/
E|--------------------------------|--------------------------------|
B|---- 3--------------------------|---- 0------ 0------ 2----------|
G|---- 2------ 2------ 2------ 2--|---- 1------ 1------ 1------ 4--|
D|---- 4------ 4------ 4------ 4--|---- 2------ 2------ 2------ 2--|
A|--------------------------------|------------------------------ 0|
E|---------------- 2--------------| 0-------------- 0--------------|

E|--------------------------------|--------------------------------|
B|------------ 5------------------|--------------------------------|
G|-- 2-------- 4------------------| 2-------------- 2--------------|
D|-- 2-------- 2------------------| 0-------------- 0--------------|
A|---- 0 0-- 0--------------------|--------------------------------|
E|-------------- 4---- 4-- 4-- 4--| 2-- 2-- 2-- 2-- 0-- 0-- 0-- 0--|
http://classicalguitartablature.blogspot.com/
E|--------------------------------|---------------------------- 2--|
B|---------------- 0--------------| 2-- 5------ 5------ 5------ 0--|
G| 1-------- 1---------- 1--------| 2-- 2------ 2------ 2------ 1--|
D| 0---- 0------------------ 0----| 2-- 2------ 2------ 2----------|
A|--------------------------------| 0------------------------------|
E| 0------------------------------|--------------------------------|
http://classicalguitartablature.blogspot.com/
E|-- 0----------------------------|---- 0------ 2------ 0----------|
B|---------------- 0---------- 0--| 2-- 2------ 2------ 2-- 3-- 3--|
G|---------- 1------------ 1------| 0------ 0-- 0------ 0-- 0-- 2--|
D|------ 2------------ 2----------| 2---------------------- 2-- 4--|
A|--------------------------------| 0------------------------------|
E| 0------------------------------|--------------------------------|
http://classicalguitartablature.blogspot.com/
E|--------------------------------|--------------------------------|
B|------------ 3------------------| 3------ 3-- 5---- 3------ 3 2--|
G|-------- 2-------------- 2------| 4---- 4---- 4---- 4------ 2----|
D|---- 4------------ 4-------- 4--| 3-- 3 3-- 3------ 3-- 3-- 2----|
A| 5------------------------------| 5---------------------------- 0|
E|--------------------------------|--------------------------------|
http://classicalguitartablature.blogspot.com/
E|--------------------------------|--------------------------------|
B|-- 2------------------------ 0--|------ 2-- 0-------------- 0----|
G|-- 2------ 4------ 2-------- 1--|------ 1-- 1---------- 1--------|
D|------ 2------ 2------ 2---- 2--|-- 2-------------- 2------------|
A|--------------------------------|--------------------------------|
E|--------------------------------| 0------------------------------|
http://classicalguitartablature.blogspot.com/
E|--------------------------------|--------------------------------|
B|------------ 0-------- 0---- 2--|------------------ 3-- 2--------|
G|------ 1------------ 2------ 2--|------------ 2-------------- 4--|
D|-- 2----------------------------|---- 2---------------------- 3--|
A|--------------------------------| 0-------------- 0--------------|
E| 0------------------------------|--------------------------------|
http://classicalguitartablature.blogspot.com/
E|--------------------------------|--------------------------------|
B|------------ 2-------------- 2--|-------------------- 3 2--------|
G|-- 2-------- 2------ 2 4-- 2----|---------- 2-------- 2 2---- 4--|
D|---- 3-------------- 3-- 3 4----|---- 4------ 4------ 4 4---- 5--|
A| 4-------------- 4--------------|--------------------------------|
E|--------------------------------| 2-------------- 2--------------|
http://classicalguitartablature.blogspot.com/
E|--------------------------------| 2---------- 0------------------|
B|------------ 2------------ 2----| 3-------------- 3--------------|
G|---- 2------ 2---------- 2------| 2------ 2------ 2---- 2-- 2----|
D|---- 5-------------- 5----------|---- 4-------------- 4----------|
A| 0-------------- 0--------------| 5-------------- 5--------------|
E|--------------------------------|--------------------------------|
http://classicalguitartablature.blogspot.com/
E|---------------- 2-- 2-- 2-- 2--|--------------------------------|
B|---------------- 3-- 3-- 3-- 2--|---- 5------ 5---- 5------------|
G| 1------ 1------ 1-- 1-- 1-- 2--|---- 2------ 2------ 2------ 2--|
D| 2---- 2------------------------|------------ 2------ 2------ 2--|
A|------------------------------ 0|---------------- 0--------------|
E| 0------------------------------|------------------------------ 4|
http://classicalguitartablature.blogspot.com/
E|-------------- 0----------------|--------------------------------|
B|-------------- 3-- 3-- 2-- 5----|---- 3--------------------------|
G|-- 4------ 4-------------- 2----|---- 2------ 2------ 2------ 2--|
D|---- 2---- 2-------------- 4----|---- 4------ 4------ 4------ 4--|
A|--------------------------------|--------------------------------|
E|-------------- 4-------------- 2|---------------- 2--------------|
http://classicalguitartablature.blogspot.com/
E|--------------------------------|--------------------------------|
B|---- 0------ 0------ 2----------|------------ 5------------------|
G|---- 1------ 1------ 1------ 4--|-- 2-------- 4------------------|
D|---- 2------ 2------ 2------ 2--|-- 2-------- 2------------------|
A|------------------------------ 0|---- 0 0-- 0--------------------|
E| 0-------------- 0--------------|-------------- 4---- 4-- 4-- 4--|
http://classicalguitartablature.blogspot.com/
E|--------------------------------|--------------------------------|
B|--------------------------------|---------------- 0--------------|
G| 2-------------- 2--------------| 1-------- 1---------- 1--------|
D| 0-------------- 0--------------| 0---- 0------------------ 0----|
A|--------------------------------|--------------------------------|
E| 2-- 2-- 2-- 2-- 0-- 0-- 0-- 0--| 0------------------------------|
http://classicalguitartablature.blogspot.com/
E|------ 0------------------------|--------------------------------|
B|---- 0--------------------------|--------------------------------|
G|-- 2----------------------------|--------------------------------|
D|-- 2----------------------------|--------------------------------|
A| 0------------------------------|--------------------------------|
E|--------------------------------|--------------------------------|
http://classicalguitartablature.blogspot.com/

0 ความคิดเห็น:

แสดงความคิดเห็น