To celebrate the anniversary, I am giving you (finally...) : iPhone LickByNeck !!!!!!

I Started A Joke (BASIC)

Bee Gees' tune fingerstyle chord melody guitar BASIC arrangement played in the key of G.

http://classicalguitartablature.blogspot.com/
I Started A Joke - The Bee Gees - BASIC ARRANGEMENT played in the key of G
http://classicalguitartablature.blogspot.com/
E|------------------ 7-- 7--------| 8---- 8---------- 8-- 8--------|
B| 8---- 8---------- 7---- 7------|-- 8---- 8--------10----10------|
G|-- 7---- 7---------- 7---- 7----|---- 9---- 9----------11----11--|
D|---- 9---- 9--------------------|--------------------------------|
A|10------------------------------|--------------------------------|
E|-------------- 7-------------- 8|----------------10--------------|
http://classicalguitartablature.blogspot.com/
E|-- 3---- 3-------- 7-- 7--------| 8---- 8---------- 8-- 8--------|
B|---- 3---- 3------ 7---- 7------|-- 8---- 8--------10----10------|
G|------ 4---- 4------ 7---- 7----|---- 9---- 9----------11----11--|
D|--------------------------------|--------------------------------|
A|--------------------------------|--------------------------------|
E| 3------------ 7-------------- 8|----------------10--------------|
http://classicalguitartablature.blogspot.com/
http://classicalguitartablature.blogspot.com/
E|--------------------------------|--------------------------------|
B| 3------ 0 1 3-- 0--------------|------------ 0-------------- 3 0|
G| 0---- 0-------- 2------ 2------|------ 0-- 2---- 5------ 5------|
D|---- 0-------------- 0------ 0--|---- 2---------- 4-- 4----------|
A|---------------- 2--------------| 3-------------- 5--------------|
E| 3------------------------------|--------------------------------|
http://classicalguitartablature.blogspot.com/
E|--------------------------------|--------------------------------|
B|---- 3------------------ 0------|--------------------------------|
G| 0-------- 0-- 0------ 2 2---- 2|---- 0-- 0 0-------- 0---- 2----|
D| 0------ 0-- 0------ 0------ 0--|---- 2------ 2 4----------------|
A|---------------- 2--------------| 3-------------- 5--------------|
E| 3------------------------------|--------------------------------|
http://classicalguitartablature.blogspot.com/
E|--------------------------------|--------------------------------|
B|------ 0------------ 0------ 0--|--------------------------------|
G|---- 0-- 0-- 0---- 2-- 2-- 2----|---- 0 0-- 0---------- 0---- 2--|
D| 0-------- 0---- 0------ 0------|---- 2------ 2 4----------------|
A|-------------- 2-------------- 3|---------------- 5--------------|
E| 3------------------------------|--------------------------------|
http://classicalguitartablature.blogspot.com/
E|------------------ 7-- 7--------| 8---- 8---------- 8-- 8--------|
B| 0------ 0-------- 7---- 7------|-- 8---- 8--------10----10------|
G| 0---- 0-- 0-- 0---- 7---- 7----|---- 9---- 9----------11----11--|
D|---- 0------ 0------------------|--------------------------------|
A|--------------------------------|--------------------------------|
E| 3-------------- 7------------ 8|----------------10--------------|
http://classicalguitartablature.blogspot.com/
E|--------------------------------|--------------------------------|
B| 3------ 0 1 3-- 0--------------|------------ 0-------------- 3 0|
G| 0---- 0-------- 2------ 2------|------ 0-- 2---- 5------ 5------|
D|---- 0-------------- 0------ 0--|---- 2---------- 4-- 4----------|
A|---------------- 2--------------| 3-------------- 5--------------|
E| 3------------------------------|--------------------------------|
http://classicalguitartablature.blogspot.com/
E|--------------------------------|--------------------------------|
B|---- 3------------------ 0------|--------------------------------|
G| 0-------- 0-- 0------ 2 2---- 2|---- 0-- 0 0-------- 0---- 2----|
D| 0------ 0-- 0------ 0------ 0--|---- 2------ 2 4----------------|
A|---------------- 2--------------| 3-------------- 5--------------|
E| 3------------------------------|--------------------------------|
http://classicalguitartablature.blogspot.com/
E|--------------------------------|--------------------------------|
B|------ 0------------ 0------ 0--|--------------------------------|
G|---- 0-- 0-- 0---- 2-- 2-- 2----|---- 0 0-- 0---------- 0---- 2--|
D| 0-------- 0---- 0------ 0------|---- 2------ 2 4----------------|
A|-------------- 2-------------- 3|---------------- 5--------------|
E| 3------------------------------|--------------------------------|
http://classicalguitartablature.blogspot.com/
E|--------------------------------|--------------------------------|
B|-------- 0------ 1------ 1------| 0------ 0----------------------|
G| 0---- 0 0---- 0 0---- 0-- 0-- 0|-------- 0---------- 0------ 2--|
D|---- 0------ 0 2---- 2------ 2--|---- 0------ 0------ 0------ 0--|
A|--------------------------------|--------------------------------|
E| 3-------------- 3--------------| 3-------------- 3------ 2------|
http://classicalguitartablature.blogspot.com/
E| 3-------------------- 0-- 2 3--| 2-------------------------- 2--|
B| 0------ 0------------ 0-- 0 0--| 3------ 3------------ 3-- 5----|
G| 0------ 0------------ 0-- 0 0--| 4------ 4------------ 2-- 2----|
D|---- 0-------------- 0----------|---- 4------------ 4-- 4-- 4----|
A|--------------------------------| 2------------ 2 2--------------|
E| 0------------ 0 0--------------|--------------------------------|
http://classicalguitartablature.blogspot.com/
E| 0-------------------------- 0--|--------------------------------|
B| 1-------------------- 1-- 3 1 3|---------------------------- 0--|
G| 0------ 0------------ 0-- 0-- 0|-------- 0------------------ 2--|
D|---- 2------------ 2-- 2-- 2----|---- 0------ 0------ 0------ 0--|
A| 3------------ 3 3--------------|--------------------------------|
E|------------------------------ 3|---------------- 3------ 2------|
http://classicalguitartablature.blogspot.com/
E|--------------------------------|--------------------------------|
B| 3---------- 3 0------ 1---- 3--| 0------------------------ 0----|
G| 2------ 2---- 2------ 2---- 2--| 0---- 0------------ 2-------- 0|
D| 0-- 0-------- 0------ 0---- 0--|---- 2------ 2 5----------------|
A| 2------------ 2----------------|-------------- 5----------------|
E|--------------------------------| 0------------------------------|
http://classicalguitartablature.blogspot.com/
E|--------------------------------|--------------------------------|
B|--------------------------------|------ 3-------------- 3--------|
G|------ 0------------------ 0----|---- 2------ 2---- 2-------- 2--|
D|---- 2-------- 2 2---- 4--------| 0-------------- 4--------------|
A| 0---------------- 0------------| 5------------------------------|
E|--------------------------------|--------------------------------|
http://classicalguitartablature.blogspot.com/
E|--------------------------------|--------------------------------|
B| 3------ 0 1 3-- 0--------------|------------ 0-------------- 3 0|
G| 0---- 0-------- 2------ 2------|------ 0-- 2---- 5------ 5------|
D|---- 0-------------- 0------ 0--|---- 2---------- 4-- 4----------|
A|---------------- 2--------------| 3-------------- 5--------------|
E| 3------------------------------|--------------------------------|
http://classicalguitartablature.blogspot.com/
E|--------------------------------|--------------------------------|
B|---- 3------------------ 0------|--------------------------------|
G| 0-------- 0-- 0------ 2 2---- 2|---- 0-- 0 0-------- 0---- 2----|
D| 0------ 0-- 0------ 0------ 0--|---- 2------ 2 4----------------|
A|---------------- 2--------------| 3-------------- 5--------------|
E| 3------------------------------|--------------------------------|
http://classicalguitartablature.blogspot.com/
E|--------------------------------|--------------------------------|
B|------ 0------------ 0------ 0--|--------------------------------|
G|---- 0-- 0-- 0---- 2-- 2-- 2----|---- 0 0-- 0---------- 0---- 2--|
D| 0-------- 0---- 0------ 0------|---- 2------ 2 4----------------|
A|-------------- 2-------------- 3|---------------- 5--------------|
E| 3------------------------------|--------------------------------|
http://classicalguitartablature.blogspot.com/
E|------------------ 7-- 7--------|--------------------------------|
B| 0------ 0-------- 7---- 7------|--------------------------------|
G| 0---- 0-- 0-- 0---- 7---- 7----|---- 0 0-- 0---------- 0---- 2--|
D|---- 0------ 0------------------|---- 2------ 2 4----------------|
A|------------------------------ 3|---------------- 5--------------|
E| 3-------------- 7--------------|--------------------------------|
http://classicalguitartablature.blogspot.com/
E|------------------------------ 0|--------------------------------|
B| 3-------------------- 3------ 1|-------- 1------ 7--------------|
G| 0---- 0 0-- 0------ 2-- 2-- 2--|---- 0---- 0-- 0-------- 5-- 5--|
D|---- 0---- 0-- 0---- 0---- 0----|---- 2------ 2------ 7---- 7-- 7|
A|---------------- 2------------ 3|---------------- 5--------------|
E| 3------------------------------|--------------------------------|
http://classicalguitartablature.blogspot.com/
E| 3------------ 2----------------| 0------------------------------|
B| 3---- 3-------- 3---- 3--------| 1------ 1------ 3--------------|
G|------ 0 0-- 0-- 4---- 4 4---- 4|------ 0-- 0-- 0 5------ 5------|
D|---- 0---- 0------ 4-------- 4--|---- 2------ 2------ 4------ 4--|
A|---------------- 2--------------| 3-------------- 5--------------|
E| 3------------------------------|------------------------------ 3|
http://classicalguitartablature.blogspot.com/
E|--------------------------------|--------------------------------|
B|--------------------------------|--------------------------------|
G| 0------------------------------|--------------------------------|
D| 0------------------------------|--------------------------------|
A|--------------------------------|--------------------------------|
E|--------------------------------|--------------------------------|
http://classicalguitartablature.blogspot.com/

0 ความคิดเห็น:

แสดงความคิดเห็น