To celebrate the anniversary, I am giving you (finally...) : iPhone LickByNeck !!!!!!

If I Ain't Got You (BASIC)

Alicia Keys tune fingerstyle chord melody guitar BASIC arrangement played in the key of G.

If I Ain't Got You - Alicia Keys - BASIC ARRANGEMENT played in the key of G
http://classicalguitartablature.blogspot.com/
E|12------12----12--------|12----12------12------10|
B|--12------12------12----|--12------12------12----|
G|----12------12------12--|----12------12------12--|
D|10----------------------|10-------------------- 9|
A|------------------------|------------------------|
E|------------------------|------------------------|
http://classicalguitartablature.blogspot.com/
E|------10--------10----10|--------10------10------|
B|--10------10------10----|--10------10------10----|
G|----11------11------11--|----11------11------11--|
D|------------------------| 9----------------------|
A|------------------------|------------------------|
E|------------------------|------------------------|
http://classicalguitartablature.blogspot.com/

http://classicalguitartablature.blogspot.com/
E| 8------ 8------ 8------| 8---- 8------ 8--------|
B|-- 8------ 8------ 8----|-- 8------ 8------ 8----|
G|---- 9------ 9------ 9--|---- 9------ 9------ 9--|
D| 7----------------------| 7----------------------|
A|------------------------|------------------------|
E|------------------------|------------------------|
http://classicalguitartablature.blogspot.com/
E| 7---- 7-------- 7---- 7|------ 7------ 7--------|
B|-- 7------ 7------ 7----|-- 7------ 7------ 7-- 5|
G|---- 7------ 7------ 7--|---- 7------ 7------ 7--|
D| 5-------------------- 5|------------------------|
A|------------------------|---------------------- 3|
E|------------------------|------------------------|
http://classicalguitartablature.blogspot.com/
E|------------------------|------------------------|
B|------ 5------ 5------ 5|------ 5------ 5------ 3|
G|-- 4------ 4------ 4----|-- 4------ 4------ 4----|
D|---- 5------ 5------ 5--|---- 5------ 5------ 5--|
A|---------------------- 3|---------------------- 2|
E|------------------------|------------------------|
http://classicalguitartablature.blogspot.com/
E|------------------------|------------------------|
B|------ 3-------- 3---- 3|------ 3------ 3------ 1|
G|-- 2------ 2------ 2----|-- 2------ 2------ 2----|
D|---- 4------ 4------ 4--|---- 4------ 4------ 4--|
A|------------------------| 2-------------------- 0|
E|------------------------|------------------------|
http://classicalguitartablature.blogspot.com/
E|------------------------|------------------------|
B|------ 1-------- 1------| 1---- 1------ 1------ 0|
G|-- 0------ 0------ 0----|-- 0------ 0------ 0----|
D|---- 2------ 2------ 2--|---- 2------ 2------ 2--|
A|------------------------| 0----------------------|
E|------------------------|---------------------- 3|
http://classicalguitartablature.blogspot.com/
E|------------------------|------------------------|
B|-------- 0------ 0------| 0----------------------|
G|-- 0------ 0------ 0----| 0----------------------|
D|---- 0------ 0------ 0--|------------------------|
A|------------------------|------------------------|
E|------------------------| 3-------------- 0-- 2--|
http://classicalguitartablature.blogspot.com/
E|-------------------- 0--|------------------------|
B|-------- 0------ 3-- 0 3|-------------- 0--------|
G|-------- 0------ 0-- 0 0|-------------------- 0--|
D|-------- 0------ 0------| 0----------------------|
A|------------------------|------------------------|
E| 3----------------------|------------------------|
http://classicalguitartablature.blogspot.com/
E|------------------------|------------------------|
B|-------------------- 0--|------------------------|
G| 2-- 0-------- 0------ 0|------------------------|
D| 0---------- 0-------- 0|------------------------|
A|------------------------|---------------------- 0|
E| 0----------------------| 0------ 3---- 4--------|
http://classicalguitartablature.blogspot.com/
E|------ 3------ 0--------|-------------- 0--------|
B|------ 1------ 1---- 3 0|-------- 3---- 3--------|
G|-------- 0---- 0---- 0 0|-------- 0------ 0------|
D|-------------------- 2 2|-------- 2--------------|
A|------------------------|------------------------|
E|------------------------|------------------------|
http://classicalguitartablature.blogspot.com/
E|------------------------|------------------------|
B| 5 5--------------------|------------------------|
G| 5-- 7---------- 7---- 7|------------------------|
D| 7-- 7------ 7------ 7 7|------------------------|
A| 5----------------------| 5----------------------|
E|------------------------|-------- 0------ 2------|
http://classicalguitartablature.blogspot.com/
E|-------------------- 0--|------------------------|
B|------------ 0 3---- 0 3|------------ 3 0---- 3 6|
G|------------ 0 0---- 0 0|-------- 0------------ 4|
D|---- 0------ 0 0------ 0|---- 0---------------- 3|
A|------------------------|------------------------|
E| 3----------------------|------------------------|
http://classicalguitartablature.blogspot.com/
E|------------------------|------------------------|
B|---- 5 3----------------|------------------------|
G|---- 4 4------ 4--------|---------------- 4------|
D|---- 3 3---- 3------ 3--|------ 3----------------|
A|------------------------|------------------------|
E| 4-------------------- 4|------------------------|
http://classicalguitartablature.blogspot.com/
E|------------------------|------------------------|
B|------------------------|-------------------- 0--|
G|-------- 0---- 0------ 0|------ 0------ 2--------|
D|---- 2------ 2------ 2 2|------ 2----------------|
A| 0-------------------- 0|------------------------|
E|------------------------|------------------------|
http://classicalguitartablature.blogspot.com/
E|------------------------|------------------------|
B| 3-- 0------------------|------------------------|
G| 2-- 2 2-------- 2------| 2----------------------|
D| 4---- 4---- 4------ 4--| 4----------------------|
A| 5----------------------| 5----------------------|
E|------------------------|------------------------|
http://classicalguitartablature.blogspot.com/
E|------------------------|------------------------|
B| 0---------- 0------ 0 1|------------ 1 0---- 1 3|
G| 0---- 0------ 2------ 0|------ 0-------------- 2|
D|---- 0---------------- 2|---- 2---------------- 4|
A|---------------------- 0|---------------------- 2|
E| 3----------------------|------------------------|
http://classicalguitartablature.blogspot.com/
E|------------------------|------------------------|
B|------ 3-------- 2------| 1---------- 1 3--------|
G|---------------- 1------| 0------ 0--------------|
D|-- 4-------- 4------ 3 2|---- 2------------------|
A|---------------- 1------| 0----------------------|
E|------------------------|------------------------|
http://classicalguitartablature.blogspot.com/
E|------------------------|------------------------|
B| 0---------- 0------ 0 1|------ 0------ 1------ 3|
G| 0---- 0------ 2------ 0|------ 0-------- 0------|
D|---- 0---------------- 2|---- 2------ 2------ 0--|
A|------------------------| 0----------------------|
E| 3----------------------|------------------------|
http://classicalguitartablature.blogspot.com/
E|------------------------|------------------------|
B|------------------------|------------------------|
G|------ 2-------- 2------| 2------ 1------ 0------|
D| 4-- 4------ 4------ 4--| 4------ 3------ 2------|
A| 2----------------------| 2------ 1------ 0------|
E|------------------------|------------------------|
http://classicalguitartablature.blogspot.com/
E|------------------------|------------------------|
B| 0---------- 0------ 0 1|------------ 1 0---- 1 3|
G| 0---- 0------ 2------ 0|------ 0-------------- 2|
D|---- 0---------------- 2|---- 2---------------- 4|
A|---------------------- 0|---------------------- 2|
E| 3----------------------|------------------------|
http://classicalguitartablature.blogspot.com/
E|------------------------|------------------------|
B|------ 3-------- 2------| 1---------- 1 3--------|
G|---------------- 1------| 0------ 0--------------|
D|-- 4-------- 4------ 3 2|---- 2------------------|
A|---------------- 1------| 0----------------------|
E|------------------------|------------------------|
http://classicalguitartablature.blogspot.com/
E|------------------------|------------------------|
B| 0---------- 0------ 0 1|------ 0------ 1--------|
G| 0---- 0------ 2------ 0|------ 0------ 0--------|
D|---- 0------------------|---- 2------ 2------ 2--|
A|------------------------| 0----------------------|
E| 3----------------------|------------------------|
http://classicalguitartablature.blogspot.com/
E|------------------------|-------------- 7--------|
B| 3---------- 3-------- 8|------10------10--------|
G| 2------ 2---- 2------ 7|------ 7----------------|
D|---- 4-------------- 4 7|---- 7------ 7------ 7--|
A| 2----------------------|------------------------|
E|---------------------- 7|------------------------|
http://classicalguitartablature.blogspot.com/
E| 7-- 7 7----------------| 7----10----------------|
B| 8-- 8 8----------------| 8---- 8------ 8------10|
G| 9-- 9-- 9--------------| 9-- 9------ 9-------- 7|
D|------------------------|---------------------- 7|
A|------------------------|------------------------|
E| 8------------------ 0--| 8----------------------|
http://classicalguitartablature.blogspot.com/
E|---- 7 7----------------| 7---- 7-------- 7------|
B|----1010--------------10|--------10------10------|
G|---- 7 7----------------| 7---------- 7------ 7--|
D|------------ 7----------|---- 7------------------|
A|------------------------|------------------------|
E| 7------------------ 0--| 7----------------------|
http://classicalguitartablature.blogspot.com/
E| 5-------------------- 7|------ 7-------- 7------|
B| 5---- 8-------- 5---- 6|------ 5-------- 5------|
G| 5---- 5-------- 5---- 5|---- 5------ 5------ 5--|
D|---- 5------ 5------ 5--|------------------------|
A|------------------------|------------------------|
E| 5----------------------| 5----------------------|
http://classicalguitartablature.blogspot.com/
E| 5------ 3--------------| 3------ 5---- 7------ 7|
B| 3------ 3------ 5------| 3------ 5------ 7---- 8|
G| 4-------------- 4------| 4------ 5------ 7---- 9|
D|---- 4------ 4------ 4--|---- 4------ 5------ 7--|
A|------------------------|------------------------|
E| 3----------------------| 3------ 5------ 7------|
http://classicalguitartablature.blogspot.com/
E|---- 7 7----------------| 7------10--------------|
B|---- 8 8----------------| 8------ 8---------- 810|
G|---- 9 9---- 9----------| 9-- 9------ 9------ 9 7|
D|------------------------|---------------------- 7|
A|------------------------|------------------------|
E| 8------------------ 0--| 8----------------------|
http://classicalguitartablature.blogspot.com/
E|---- 7 7----------------| 7---- 7-------- 7---- 5|
B|----1010--------------10|--------10------10---- 5|
G|---- 7 7----------------| 7---------- 7------ 7--|
D|------------ 7----------|---- 7------------------|
A|------------------------|------------------------|
E| 7------------------ 0--| 7----------------------|
http://classicalguitartablature.blogspot.com/
E|------------------------|-------------------- 510|
B|---- 8-------- 8------ 5|------ 8--------------10|
G| 5-- 5------ 5-------- 5|-------------- 5------11|
D|------ 5------------ 5--| 5-- 5------ 5----------|
A|------------------------|----------------------10|
E| 5-------------------- 5|------------------------|
http://classicalguitartablature.blogspot.com/
E|------------------------|------------------------|
B|--1012--------------1210|------------------------|
G|--11----------11----1111|----12------------------|
D|--12--------12------1212|------------12----------|
A|------------------------|------------------------|
E|------------------------|------------------------|
http://classicalguitartablature.blogspot.com/
E|12------12----12--------|12----12------12------10|
B|--12------12------12----|--12------12------12----|
G|----12------12------12--|----12------12------12--|
D|10----------------------|10-------------------- 9|
A|------------------------|------------------------|
E|------------------------|------------------------|
http://classicalguitartablature.blogspot.com/
E|------10--------10----10|--------10------10------|
B|--10------10------10----|--10------10------10----|
G|----11------11------11--|----11------11------11--|
D|------------------------| 9----------------------|
A|------------------------|------------------------|
E|------------------------|------------------------|
http://classicalguitartablature.blogspot.com/
E| 8------ 8------ 8------| 8---- 8------ 8--------|
B|-- 8------ 8------ 8----|-- 8------ 8------ 8----|
G|---- 9------ 9------ 9--|---- 9------ 9------ 9--|
D| 7----------------------| 7----------------------|
A|------------------------|------------------------|
E|------------------------|------------------------|
http://classicalguitartablature.blogspot.com/
E| 7---- 7-------- 7---- 7|------ 7------ 7--------|
B|-- 7------ 7------ 7----|-- 7------ 7------ 7-- 5|
G|---- 7------ 7------ 7--|---- 7------ 7------ 7--|
D| 5-------------------- 5|------------------------|
A|------------------------|---------------------- 3|
E|------------------------|------------------------|
http://classicalguitartablature.blogspot.com/
E|------------------------|------------------------|
B|------ 5------ 5------ 5|------ 5------ 5------ 3|
G|-- 4------ 4------ 4----|-- 4------ 4------ 4----|
D|---- 5------ 5------ 5--|---- 5------ 5------ 5--|
A|---------------------- 3|---------------------- 2|
E|------------------------|------------------------|
http://classicalguitartablature.blogspot.com/
E|------------------------|------------------------|
B|------ 3-------- 3---- 3|------ 3------ 3------ 1|
G|-- 2------ 2------ 2----|-- 2------ 2------ 2----|
D|---- 4------ 4------ 4--|---- 4------ 4------ 4--|
A|------------------------| 2-------------------- 0|
E|------------------------|------------------------|
http://classicalguitartablature.blogspot.com/
E|------------------------|------------------------|
B|------ 1-------- 1------| 1---- 1------ 1--------|
G|-- 0------ 0------ 0----|-- 0------ 0------ 0----|
D|---- 2------ 2------ 2--|---- 2------ 2------ 2--|
A|------------------------| 0----------------------|
E|------------------------|---------------------- 3|
http://classicalguitartablature.blogspot.com/
E|------------------------|------------------------|
B|-- 0--------------------|------------------------|
G| 2----------------------|------------------------|
D| 0----------------------|------------------------|
A|------------------------|------------------------|
E|------------------------|------------------------|
http://classicalguitartablature.blogspot.com/

0 ความคิดเห็น:

แสดงความคิดเห็น