To celebrate the anniversary, I am giving you (finally...) : iPhone LickByNeck !!!!!!

I'll Be There (BASIC)

Jackson Five's classic tune fingerstyle chord melody guitar BASIC arrangement played in the key of F.

http://classicalguitartablature.blogspot.com/
I'll Be There- BASIC ARRANGEMENT played in the key of F
http://classicalguitartablature.blogspot.com/
E|--------------------------------|--------------------------------|
B|10------10------1110----10------| 9-- 8------ 6------------ 6--10|
G|10------10------1010----10------| 8-- 8------ 3------ 3 3 5----10|
D|10------10------1010----10------| 8-- 8------ 3----------------10|
A| 8------------ 8 8--------------| 6------------------------------|
E|--------------------------------|------------ 6------------------|
http://classicalguitartablature.blogspot.com/
E|--------------------------------|--------------------------------|
B|------10--------1110--10--------|11------------------------------|
G|------10--------1010--10--------|10------------------------------|
D|------10--------1010--10--------|10------------------------------|
A| 8------------ 8 8--------------| 8------------------------------|
E|--------------------------------|------------------------ 8------|
http://classicalguitartablature.blogspot.com/
http://classicalguitartablature.blogspot.com/
E|--------------------------------| 8------------------------------|
B|--------10--11--10----------11--| 5---------- 8-- 8--------------|
G|--------10--10--10------10------| 5------ 5------ 5------ 5------|
D|----10--------------10----------|---- 5-------------- 5------ 5--|
A| 8------------------------------| 7-------------- 7--------------|
E|--------------------------------|--------------------------------|
http://classicalguitartablature.blogspot.com/
E|------------------------------ 5|--------------------------------|
B|-------- 6-- 8 6------------ 8 5|------ 5-- 5--------------------|
G|-------- 5-- 5 5------ 5------ 5|------ 5---- 5-------- 5--------|
D|---- 7-- 7-- 7-- 7-- 7----------|---- 5-------------- 5------ 5--|
A| 5------------------------------|--------------------------------|
E|---------------- 8--------------| 5-------------- 5--------------|
http://classicalguitartablature.blogspot.com/
E|-------------------------- 6----| 5------------------------------|
B|---------------- 3-- 6----------| 3---------------- 3------ 6----|
G|-------- 3----------------------|-- 5------ 5------ 5---------- 5|
D|---- 3------ 3 3----------------|------ 3------------------------|
A|--------------------------------| 3------------ 3----------------|
E| 6------------ 3----------------|--------------------------------|
http://classicalguitartablature.blogspot.com/
E|--------------------------------|--------------------------------|
B| 6------------------------------|--------------------------------|
G|-------- 5-------------- 5-- 5--|---------- 5------ 5-------- 3--|
D| 7-- 7-------------- 5------ 5--|---------- 5------ 5-------- 3--|
A| 8---------- 7-------------- 5--|--------------------------------|
E|--------------------------------|-- 8------ 6-------- 5------ 3--|
http://classicalguitartablature.blogspot.com/
E|--------------------------------| 8------------------------------|
B|--------10--11--10----------11--| 5---------- 8-- 8--------------|
G|--------10--10--10------10------| 5------ 5------ 5------ 5------|
D|----10--------------10----------|---- 5-------------- 5------ 5--|
A| 8------------------------------| 7-------------- 7--------------|
E|--------------------------------|--------------------------------|
http://classicalguitartablature.blogspot.com/
E|------------------------------ 5|--------------------------------|
B|-------- 6-- 8 6------------ 8 5|------ 5-- 5--------------------|
G|-------- 5-- 5 5------ 5------ 5|------ 5---- 5-------- 5--------|
D|---- 7-- 7-- 7-- 7-- 7----------|---- 5-------------- 5------ 5--|
A| 5------------------------------|--------------------------------|
E|---------------- 8--------------| 5-------------- 5--------------|
http://classicalguitartablature.blogspot.com/
E|-------------------------- 6----| 5------------------------------|
B|---------------- 3-- 6----------| 3---------------- 3------ 6----|
G|-------- 3----------------------|-- 5------ 5------ 5------------|
D|---- 3------ 3 3----------------|------ 3------------------------|
A|--------------------------------| 3------------ 3----------------|
E| 6------------ 3----------------|--------------------------------|
http://classicalguitartablature.blogspot.com/
E| 1------------------ 1----------|--------------------------------|
B| 1---------- 1------ 1----------| 1-- 1-- 1-- 1-- 1-- 1-- 1-- 1--|
G| 2---------- 2------ 2----------|---- 2-- 2-- 2 2---- 2-- 2-- 2--|
D|------ 3-------------------- 3--| 3-- 3-- 3-- 3-- 3-- 3-- 3-- 3--|
A|--------------------------------|--------------------------------|
E| 1---------------------- 1------| 1-- 1-- 1-- 1-- 1-- 1-- 1-- 1--|
http://classicalguitartablature.blogspot.com/
E|------------------------------ 3|--------------------------------|
B|-------- 4 4 4-------- 4------ 4|-- 4---------------------- 3 4--|
G|-------- 5 5 5------------ 5----| 3 3-------- 3-- 3-------- 3 3--|
D|---- 6-- 6 6 6---- 6------------|-- 5---- 5-- 5---- 5-------- 5--|
A|--------------------------------| 6-------------------- 6--------|
E| 4-------------- 4--------------|--------------------------------|
http://classicalguitartablature.blogspot.com/
E|------------------------------ 1|--------------------------------|
B| 6------ 8 9-- 6----------------| 1------ 4 3-- 1-- 3------------|
G| 7---- 7------ 7-- 7------ 5 7--| 2---- 2------ 2-- 2-------- 2--|
D|---- 6-------- 6------ 6--------|---- 1-------- 1---- 1-- 1------|
A|--------------------------------|--------------------------------|
E| 6-------------- 6--------------| 1-------------- 1--------------|
http://classicalguitartablature.blogspot.com/
E|------------------------------ 3|--------------------------------|
B|-------- 4 4 4-------- 4------ 4|-- 4---------------------- 3 4--|
G|-------- 5 5 5------------ 5----| 3 3-------- 3-- 3-------- 3 3--|
D|---- 6-- 6 6 6---- 6------------|-- 5---- 5-- 5---- 5-------- 5--|
A|--------------------------------| 6-------------------- 6--------|
E| 4-------------- 4--------------|--------------------------------|
http://classicalguitartablature.blogspot.com/
E|--------------------------------|--------------------------------|
B| 6---------------------------- 6|-- 8--------10 8---- 6----------|
G| 7------ 7---- 7-- 7-------- 7--|-- 8-------- 8 8---- 8------ 8 3|
D| 6------ 6---- 6---- 6----------|--10--------10--10-- 7------ 7 3|
A|------------------------------ 8|---------------- 8-- 8----------|
E| 6---------------------- 6------|------------------------------ 1|
http://classicalguitartablature.blogspot.com/
E|--------------------------------|--------------------------------|
B|--------------------------------|--------------------------------|
G|---- 3-- 3-- 3 3-- 3-- 3-- 3-- 3|-- 3-- 3-- 3-- 3-- 3-- 3-- 3----|
D|---- 3-- 3-- 3-- 3 3-- 3-- 3-- 3|-- 3-- 3-- 3-- 3-- 3-- 3-- 3----|
A|--------------------------------|--------------------------------|
E|---- 1-- 1-- 1-- 1 1-- 1-- 1----| 1 1-- 1-- 1-- 1-- 1---- 1-- 1--|
http://classicalguitartablature.blogspot.com/
E|----------13--------------------|----------10--------------------|
B|----------13------15--13------13|--10--13--10--13----------------|
G|------14--14------14------14--12|--12--12--12--12----12------12--|
D|----15------------15----------10|--10--10------10--------10------|
A|--------------------------------|--------------------------------|
E|13------------13--------------12|----------------12--------------|
http://classicalguitartablature.blogspot.com/
E|------------------------------ 5|--------------------------------|
B|-------- 6-- 8 6------------ 8 5|------ 5-- 5--------------------|
G|-------- 5-- 5 5------ 5------ 5|------ 5---- 5-------- 5--------|
D|---- 7-- 7-- 7-- 7-- 7----------|---- 5-------------- 5------ 5--|
A| 5------------------------------|--------------------------------|
E|---------------- 8--------------| 5-------------- 5--------------|
http://classicalguitartablature.blogspot.com/
E|-------------------------- 6----| 5------------------------------|
B|---------------- 3-- 6----------| 3---------------- 3------ 6----|
G|-------- 3----------------------|-- 5------ 5------ 5---------- 5|
D|---- 3------ 3 3----------------|------ 3------------------------|
A|--------------------------------| 3------------ 3----------------|
E| 6------------ 3----------------|--------------------------------|
http://classicalguitartablature.blogspot.com/
E|--------------------------------|--------------------------------|
B| 6------------------------------|--------------------------------|
G|-------- 5-------------- 5-- 5--|---------- 5------ 5-------- 3--|
D| 7-- 7-------------- 5------ 5--|---------- 5------ 5-------- 3--|
A| 8---------- 7-------------- 5--|--------------------------------|
E|--------------------------------|-- 8------ 6-------- 5------ 3--|
http://classicalguitartablature.blogspot.com/
E|-------- 8 8 8---- 8--------10--|--------------------------------|
B|------10--1010--------10----13--|----13--------------------------|
G|-------- 9 9 9---------- 9--12--|----12------12--------12--------|
D|----10----------------10--------|----10--10--10------10------10--|
A| 8------------ 8----------------|--------------------------------|
E|--------------------------------|12--------------12--------------|
http://classicalguitartablature.blogspot.com/
E|------------1013---- 8----------|------------10------------------|
B|----------13------------10 8----|--------1013----10--------------|
G|------10--------------------10--|--10--12----------1210------10--|
D|----10--------------------------|----10------------------10------|
A|--------------------------------| 0-------------- 0--------------|
E|10-------------- 8--------------|--------------------------------|
http://classicalguitartablature.blogspot.com/
E|-------------------------- 6----| 5------------------------------|
B|---------------- 3-- 6----------| 3---------------- 3------ 6----|
G|-------- 3----------------------|-- 5------ 5------ 5------------|
D|---- 3------ 3 3----------------|------ 3------------------------|
A|--------------------------------| 3------------ 3----------------|
E| 6------------ 3----------------|--------------------------------|
http://classicalguitartablature.blogspot.com/
E| 1------------------ 1----------|--------------------------------|
B| 1---------- 1------ 1----------| 1-- 1-- 1-- 1-- 1-- 1-- 1-- 1--|
G| 2---------- 2------ 2----------|---- 2-- 2-- 2 2---- 2-- 2-- 2--|
D|------ 3-------------------- 3--| 3-- 3-- 3-- 3-- 3-- 3-- 3-- 3--|
A|--------------------------------|--------------------------------|
E| 1---------------------- 1------| 1-- 1-- 1-- 1-- 1-- 1-- 1-- 1--|
http://classicalguitartablature.blogspot.com/
E|---------------------- 8---- 8--|--------------------------------|
B|----------------10----10---- 5--|-------- 5---- 5------ 5--------|
G|------ 9---- 9-- 9---------- 5--|-------- 5---- 5------ 5--------|
D|----10------10----10------------|---- 5-------- 5-- 5------------|
A| 8-------------- 8--------------| 7---------- 7-- 7-------- 7----|
E|--------------------------------|--------------------------------|
http://classicalguitartablature.blogspot.com/
E|----------------12---- 8----10--|---- 8--------------------------|
B|------ 6--------10--10------ 8--|---- 8------ 8------------------|
G|------ 5---- 5--1010-------- 9--|---- 9------ 9---------- 9-- 9--|
D|-- 7------ 7--------------------|-------- 7---------- 7---- 7----|
A| 5------------------------------| 0-------------- 0--------------|
E|---------------- 8--------------|--------------------------------|
http://classicalguitartablature.blogspot.com/
E|-------------------------- 6----| 5------------------------------|
B|---------------- 3-- 6----------| 3---------------- 3------ 6----|
G|-------- 3----------------------|-- 5------ 5------ 5---------- 5|
D|---- 3------ 3 3----------------|------ 3------------------------|
A|--------------------------------| 3------------ 3----------------|
E| 6------------ 3----------------|--------------------------------|
http://classicalguitartablature.blogspot.com/
E|--------------------------------|--------------------------------|
B| 6------------------------------|--------------------------------|
G|-------- 5-------------- 5-- 5--|---------- 5------ 5-------- 3--|
D| 7-- 7-------------- 5------ 5--|---------- 5------ 5-------- 3--|
A| 8---------- 7-------------- 5--|--------------------------------|
E|--------------------------------|-- 8------ 6-------- 5------ 3--|
http://classicalguitartablature.blogspot.com/
E|--------------------------------|--------------------------------|
B|--------------------------------| 9-- 8------ 6------------ 6--10|
G| 2---- 2-------- 3 2---- 2------| 8-- 8------ 3------ 3 3 5----10|
D| 3------ 3------ 3 3---- 3------| 8-- 8------ 3----------------10|
A|--------------------------------| 6------------------------------|
E| 1------------ 1----------------|------------ 6------------------|
http://classicalguitartablature.blogspot.com/
E|--------------------------------|--------------------------------|
B|------10--------1110--10--------|11------------------------------|
G|------10--------1010--10--------|10------------------------------|
D|------10--------1010--10--------|10------------------------------|
A| 8------------ 8 8--------------| 8---------------------------- 8|
E|--------------------------------|------------------------ 8------|
http://classicalguitartablature.blogspot.com/
E| 5------------------------------|--------------------------------|
B| 5------------------------------|--------------------------------|
G| 5------------------------------|--------------------------------|
D|--------------------------------|--------------------------------|
A|--------------------------------|--------------------------------|
E|--------------------------------|--------------------------------|
http://classicalguitartablature.blogspot.com/

0 ความคิดเห็น:

แสดงความคิดเห็น