To celebrate the anniversary, I am giving you (finally...) : iPhone LickByNeck !!!!!!

Just The Two Of Us (BASIC)

Bill Whiters / Grover Washngton Jnr's classic tune fingerstyle chord melody guitar BASIC arrangement played in the key of Em.

http://classicalguitartablature.blogspot.com/
Just The Two Of Us - BASIC ARRANGEMENT played in the key of Em
http://classicalguitartablature.blogspot.com/
E|--------------------------------|--------------------------------|
B|--------------------------------|--------------------------------|
G|--------------------------------|--------------------------------|
D|--------------------------------|--------------------------------|
A|---------------------- 6------ 7|-------------- 5----------------|
E| 8-------------- 7--------------|------------------------ 3------|
http://classicalguitartablature.blogspot.com/
E|--------------------------------|--------------------------------|
B|--------------------------------|--------------------------------|
G|--------------------------------|--------------------------------|
D|--------------------------------|--------------------------------|
A|------------------------ 6------| 7------------------------------|
E| 8-------------- 7--------------|--------------------------------|
http://classicalguitartablature.blogspot.com/
E|--------------------------------|--------------------------------|
B|--------------------------------|--------------------------------|
G| 9-------------- 8--------------| 7-------------- 5------ 4------|
D| 9------------ 7----------------| 5-------------- 3------ 3------|
A|---------------------- 6--------| 7-------------- 5--------------|
E| 8-------------- 7--------------|------------------------ 3------|
http://classicalguitartablature.blogspot.com/
E|--------------------------------|--------------------------------|
B|--------------------------------|--------------------------------|
G| 9-------------- 8--------------| 7------------------------------|
D| 9------------ 7----------------| 5------------------------------|
A|---------------------- 6--------|------------------------------ 3|
E| 8-------------- 7--------------| 0------------------------------|
http://classicalguitartablature.blogspot.com/
E|-- 3-- 3 3-- 2---- 2------ 5 7--|------ 710--12----10------------|
B|---- 5 5 5-- 4---- 4---- 8-- 8--|------ 8 8--10----10--12--10--10|
G|---- 4 4 4-- 2---- 2---- 5-- 7--|------ 7 7--10----10--10----12 9|
D|------------------------ 7------|-- 9------------------ 9------ 9|
A|-------------- 2-------- 6------| 7------------------------------|
E|--------------------------------|--------------10------ 9------ 8|
http://classicalguitartablature.blogspot.com/
E|---------------------- 5---- 0--|--------------------------------|
B|-- 8-------------------- 8-- 8 0|--------------------------------|
G|-- 9-------- 9-- 8------ 5-- 5 0|-------- 0------ 5------ 4------|
D|---------- 9---- 7-- 7------ 7--|---- 0------ 0-- 3------ 3------|
A|------------------------ 6------|---------------- 5------------ 3|
E|---------------- 7--------------| 0---------------------- 3------|
http://classicalguitartablature.blogspot.com/
E|-- 3-- 3 3-- 2---- 2------ 5 7--|------ 710--12----10------------|
B|---- 5 5 5-- 4---- 4---- 8-- 8--|------ 8 8--10----10--12--10--10|
G|---- 4 4 4-- 2---- 2---- 5-- 7--|------ 7 7--10----10--10----12 9|
D|------------------------ 7------|-- 9------------------ 9------ 9|
A|-------------- 2-------- 6------| 7------------------------------|
E|--------------------------------|--------------10------ 9------ 8|
http://classicalguitartablature.blogspot.com/
E|---------------------- 5---- 0--|------------------------ 7 5 3--|
B|-- 8-------------------- 8-- 8 0|------------------------ 3 3----|
G|-- 9-------- 9-- 8------ 5-- 5 0|-------- 0------ 5------ 4-- 4--|
D|---------- 9---- 7-- 7------ 7--|---- 0------ 0-- 3--------------|
A|------------------------ 6------|---------------- 5--------------|
E|---------------- 7--------------| 0---------------------- 3------|
http://classicalguitartablature.blogspot.com/
E| 5 3 3----------------10------10|---- 7--1010--12-------- 7-- 5--|
B| 5 5-- 5--------------12----12 8|---- 8--1313--10-------- 3-- 3--|
G| 4-- 4 4---------- 2--12----12 7|---- 7--12----10-------- 4------|
D|------------------ 4--------10--|--------------------10----------|
A| 3---------- 3-- 2--------------|--------------------------------|
E|------------------------11------| 0------11------10------ 3------|
http://classicalguitartablature.blogspot.com/
E| 5 3 3---------------- 5--------|------------------------ 7 5 3--|
B| 5 5-- 5-------------- 8-- 8-- 5|------------------------ 3 3 3--|
G| 4-- 4 4---------- 2-- 5-- 5-- 7|---- 7---- 7-- 7-- 5---- 4 4 4--|
D|------------------ 4------ 7-- 5|---- 5---- 5-- 5-- 3------------|
A| 3---------- 3-- 2---- 6--------|-------------- 5----------------|
E|--------------------------------| 0---------------------- 3------|
http://classicalguitartablature.blogspot.com/
E| 5 3 3----------------10------10|---- 7--1010--12-------- 7-- 5--|
B| 5 5-- 5--------------12----12 8|---- 8--1313--10-------- 3-- 3--|
G| 4-- 4 4---------- 2--12----12 7|---- 7--12----10-------- 4------|
D|------------------ 4--------10--|--------------------10----------|
A| 3---------- 3-- 2--------------|--------------------------------|
E|------------------------11------| 0------11------10------ 3------|
http://classicalguitartablature.blogspot.com/
E| 5 3 3---------------- 5--------|------------------------ 7 5 3--|
B| 5 5-- 5-------------- 8-- 8-- 5|------------------------ 3 3 3--|
G| 4-- 4 4---------- 2-- 5-- 5-- 7|---- 7---- 7-- 7-- 5---- 4 4 4--|
D|------------------ 4------ 7-- 5|---- 5---- 5-- 5-- 3------------|
A| 3---------- 3-- 2---- 6--------|-------------- 5----------------|
E|--------------------------------| 0---------------------- 3------|
http://classicalguitartablature.blogspot.com/
E| 7---------- 7------ 7----------| 5---------- 5------ 5----------|
B| 8--10 8---- 8----10 8----------| 6-- 6------ 6---- 8 6----------|
G| 9-- 9 9-- 9-- 8-- 8 8------ 8--| 7-- 7-- 7-- 6------ 6------ 6--|
D|------------------ 7---- 7------|------------------ 5---- 5------|
A|--------------------------------|--------------------------------|
E| 8-------------- 7--------------| 6------------ 5----------------|
http://classicalguitartablature.blogspot.com/
E| 3-------------- 3-- 3----------|------ 3----10---------- 8------|
B| 4 6-- 4---- 4---- 6 4---- 6----| 5---- 5---- 8---------- 8------|
G| 5------ 5-- 4---- 4 4 4--------| 4---- 4---- 8---------- 8------|
D|------------------ 3------------| 5------------------ 8----------|
A|--------------------------------| 3---------- 8------------------|
E| 4-------------- 3--------------|--------------------------------|
http://classicalguitartablature.blogspot.com/
E| 7---------- 7------ 7----------| 5---------- 5------ 5----------|
B| 8--10 8---- 8----10 8----------| 6-- 6------ 6---- 8 6----------|
G| 9-- 9 9-- 9-- 8-- 8 8------ 8--| 7-- 7-- 7-- 6------ 6------ 6--|
D|------------------ 7---- 7------|------------------ 5---- 5------|
A|--------------------------------|--------------------------------|
E| 8-------------- 7--------------| 6------------ 5----------------|
http://classicalguitartablature.blogspot.com/
E| 3-------------- 3-- 3----------|------ 3----10---------- 710----|
B| 4 6-- 4---- 4---- 6 4---- 6----| 5---- 5---- 8-------------- 8--|
G| 5------ 5-- 4---- 4 4 4--------| 4---- 4------------------------|
D|------------------ 3------------| 5------------------------------|
A|--------------------------------| 3---------- 8------------------|
E| 4-------------- 3--------------|--------------------------------|
http://classicalguitartablature.blogspot.com/
E| 5 3 3----------------10------10|---- 7--1010--12-------- 7-- 5--|
B| 5 5-- 5--------------12----12 8|---- 8--1313--10-------- 3-- 3--|
G| 4-- 4 4---------- 2--12----12 7|---- 7--12----10-------- 4------|
D|------------------ 4--------10--|--------------------10----------|
A| 3---------- 3-- 2--------------|--------------------------------|
E|------------------------11------| 0------11------10------ 3------|
http://classicalguitartablature.blogspot.com/
E| 5 3 3---------------- 5--------|------------------------ 7 5 3--|
B| 5 5-- 5-------------- 8-- 8-- 5|------------------------ 3 3 3--|
G| 4-- 4 4---------- 2-- 5-- 5-- 7|---- 7---- 7-- 7-- 5---- 4 4 4--|
D|------------------ 4------ 7-- 5|---- 5---- 5-- 5-- 3------------|
A| 3---------- 3-- 2---- 6--------|-------------- 5----------------|
E|--------------------------------| 0---------------------- 3------|
http://classicalguitartablature.blogspot.com/
E| 5 3 3----------------10------10|---- 7--1010--12-------- 7-- 5--|
B| 5 5-- 5--------------12----12 8|---- 8--1313--10-------- 3-- 3--|
G| 4-- 4 4---------- 2--12----12 7|---- 7--12----10-------- 4------|
D|------------------ 4--------10--|--------------------10----------|
A| 3---------- 3-- 2--------------|--------------------------------|
E|------------------------11------| 0------11------10------ 3------|
http://classicalguitartablature.blogspot.com/
E| 5 3 3---------------- 5--------|--------------------------------|
B| 5 5-- 5-------------- 8-- 8-- 5|--------------------------------|
G| 4-- 4 4---------- 2-- 5-- 5-- 7|---- 7---- 7-- 7----------------|
D|------------------ 4------ 7-- 5|---- 5---- 5-- 5----------------|
A| 3---------- 3-- 2---- 6--------|--------------------------------|
E|--------------------------------| 0-------------- 0--------------|
http://classicalguitartablature.blogspot.com/
E|--------------------------------|--------------------------------|
B|--------------------------------|--------------------------------|
G| 9-------------- 8--------------| 7-------------- 5------ 4------|
D| 9------------ 7----------------| 5-------------- 3------ 3------|
A|---------------------- 6--------| 7-------------- 5--------------|
E| 8-------------- 7--------------|------------------------ 3------|
http://classicalguitartablature.blogspot.com/
E|--------------------------------|--------------------------------|
B|--------------------------------|--------------------------------|
G| 9-------------- 8--------------| 7------------------------------|
D| 9------------ 7----------------| 5------------------------------|
A|---------------------- 6--------|--------------------------------|
E| 8-------------- 7--------------| 0------------------------------|
http://classicalguitartablature.blogspot.com/

0 ความคิดเห็น:

แสดงความคิดเห็น