To celebrate the anniversary, I am giving you (finally...) : iPhone LickByNeck !!!!!!

Lately (BASIC)

Stevie Wonder's classic tune fingerstyle chord melody guitar BASIC arrangement played in the key of G.

Lately - BASIC ARRANGEMENT played in the key of G.
http://classicalguitartablature.blogspot.com/
E|---------------------------- 2--|--------------------------------|
B| 0---------- 0------------ 0----| 3---------- 3-------------- 3 0|
G| 2------ 2-------------- 2------| 0------ 0-------------- 0------|
D| 0-- 0-------------- 0----------|---- 0-------------- 0---- 2----|
A|--------------------------------|------------------------------ 3|
E| 3-------------- 3--------------| 0-------------- 0--------------|
http://classicalguitartablature.blogspot.com/
E|--------------------------------|--------------------------------|
B|------------ 0---------- 0------|--------------------------------|
G| 0------ 0------------------ 2--| 0------ 0-------------------- 2|
D|---- 2-------------- 2---- 2----| 4-- 4------ 4-- 2------ 4------|
A|---------------- 3------------ 5|--------------------------------|
E|--------------------------------|------------------------------ 3|
http://classicalguitartablature.blogspot.com/
http://classicalguitartablature.blogspot.com/
E| 3 2 3-- 2---- 3-- 2-- 0--------| 0------------------------------|
B| 0 0-- 0 0-- 0 0-- 0-- 0 3------| 0-- 0---------- 0---------- 0--|
G|-- 2-- 2-- 2-- 2-- 2-- 2---- 2 0|------------ 0---------- 0------|
D|-------------------------- 0----|-------- 0---------- 0----------|
A|--------------------------------|------------------------------ 0|
E|---------------- 3------------ 0|--------------------------------|
http://classicalguitartablature.blogspot.com/
E|-------------------------- 0----|--------------------------------|
B| 1-- 1 1-- 1-- 1-- 1-- 3-- 0----| 7------------------------------|
G| 0-- 0 0-- 0-- 0-- 0-- 0-- 0----| 5------ 5---- 5------------ 4 5|
D| 2-- 2 2---- 2 2-- 2------------| 7-- 7------ 7------ 7------ 3--|
A|---------------- 0---- 2---- 3--| 5-------------- 5------------ 0|
E|--------------------------------|------------------------ 4------|
http://classicalguitartablature.blogspot.com/
E| 5---- 5-------- 5--------------| 0------------------------------|
B| 5 9------ 8---- 5 8-- 5--------| 1-- 1------ 1-------------- 5--|
G|---------- 5-- 5------ 5---- 7 0|-------- 0 0---------- 5--------|
D|---------- 7---------- 6--------|-------- 2-------- 7---- 7------|
A|-------------- 0------ 0------ 0|---------------- 5--------------|
E|--------------------------------|--------------------------------|
http://classicalguitartablature.blogspot.com/
E|--------------------------------|--------------------------------|
B| 3-------------- 3------ 3------|---------------------------- 3--|
G| 0------ 0------ 0------ 0---- 5|---------- 5------------ 2---- 2|
D|---- 0------ 0------ 0-------- 5|-- 5-------- 5------ 0----------|
A|-------------------------- 3 4 5|--------------------------------|
E| 3------------------------------|------ 5-------- 2------------ 3|
http://classicalguitartablature.blogspot.com/
E| 3 2 3-- 2---- 3-- 2-- 0--------| 0------------------------------|
B| 0 0-- 0 0-- 0 0-- 0-- 0 3------| 0-- 0---------- 0---------- 0--|
G|-- 2-- 2-- 2-- 2-- 2-- 2---- 2 0|------------ 0---------- 0------|
D|-------------------------- 0----|-------- 0---------- 0----------|
A|--------------------------------|------------------------------ 0|
E|---------------- 3------------ 0|--------------------------------|
http://classicalguitartablature.blogspot.com/
E|-------------------------- 0----|--------------------------------|
B| 1-- 1 1-- 1-- 1-- 1-- 3-- 0----| 7------------------------------|
G| 0-- 0 0-- 0-- 0-- 0-- 0-- 0----| 5------ 5---- 5------------ 4 5|
D| 2-- 2 2---- 2 2-- 2------------| 7-- 7------ 7------ 7------ 3--|
A|---------------- 0---- 2---- 3--| 5-------------- 5------------ 0|
E|--------------------------------|------------------------ 4------|
http://classicalguitartablature.blogspot.com/
E| 5---- 5-------- 5--------------| 0------------------------------|
B| 5 9------ 8---- 5 8-- 5--------| 1-- 1------ 1-------------- 5--|
G|---------- 5-- 5------ 5---- 7 0|-------- 0 0---------- 5--------|
D|---------- 7---------- 6--------|-------- 2-------- 7---- 7------|
A|-------------- 0------ 0------ 0|---------------- 5--------------|
E|--------------------------------|--------------------------------|
http://classicalguitartablature.blogspot.com/
E|---------------------------- 5--|--------------------------------|
B| 3-------- 3---- 3------ 3------| 6---- 6------ 3----------------|
G| 0------ 0------ 0-------- 4----| 5---- 5-------- 4---------- 4 4|
D|---- 0------ 0------ 0----------|---- 3---------- 3-- 3------ 3--|
A|--------------------------------| 5---------------------- 4---- 3|
E| 3------------------------------|---------- 5 4-- 3--------------|
http://classicalguitartablature.blogspot.com/
E| 5 3 5-- 3---- 5---- 3-- 3------|--------------------------------|
B| 5 5 5---- 5 5-- 5---- 5------ 5|10-- 810--11--10-- 8---- 8------|
G|---------- 4---- 4-------- 4----| 8 8-- 8---- 8 8------ 8---- 8--|
D|------------------------------10|------10--10--10----------10----|
A|---------------- 3--------------|--------------------------------|
E|------------------------------ 8|-------------- 8----------------|
http://classicalguitartablature.blogspot.com/
E|---------------------------- 0--|------------------------------ 3|
B| 0---- 0-- 1 3---------- 3------| 7---- 5-- 5-- 7------ 5-- 7-- 1|
G| 2---- 2 2 2-- 2---- 2---- 2----| 7-- 7-- 7---------- 7 7-- 7-- 0|
D|---- 0------------ 0---------- 7|-- 7-------------- 7------------|
A| 2-------------- 2--------------|------------------------------ 0|
E|------------------------------ 0|---------------- 0--------------|
http://classicalguitartablature.blogspot.com/
E|---------- 3---- 5-------- 5-- 6|-------------- 5----------------|
B|------ 1-------- 3------ 3-- 3 4|------ 4------ 5------------ 5--|
G|---- 0------ 0-- 2---- 2--------| 3---- 3 3---- 5-------- 5------|
D|-- 2---------------- 4----------|---- 5------ 5 5---- 5----------|
A|---------------- 2--------------| 3------------ 5----------------|
E|--------------------------------|--------------------------------|
http://classicalguitartablature.blogspot.com/
E| 3------------------------------| 5 5 5-- 5 5---- 4------ 0-- 2--|
B| 3------ 3-------- 3-------- 3--| 3 3 3-- 3 3 3-- 3---- 0--------|
G| 0---- 0-- 0---- 0-- 0---- 0----| 4 4 4-- 4 4 4-- 4-- 4----------|
D|---- 0-------- 0-------- 0------|--------------------------------|
A|--------------------------------|--------------------------------|
E| 3------------------------------| 0-------------- 0--------------|
http://classicalguitartablature.blogspot.com/
E| 3-------------- 5--------------| 6-------------- 8---------- 810|
B| 1---- 1-------- 3---- 3--------| 4------ 4------ 6------ 6------|
G| 0---- 0-- 0---- 2-- 2---- 2----| 3------ 3------ 5------ 5------|
D|-- 2-------- 2 4-- 4-------- 4--|---- 5------ 5 7---- 7----------|
A| 0-------------- 2--------------| 3-------------- 5--------------|
E|--------------------------------|--------------------------------|
http://classicalguitartablature.blogspot.com/
E|--------10------------ 8------10|---------------- 8--------------|
B| 8---- 8-- 8-------- 8---- 8--11|------11-------- 9------ 9------|
G| 7-- 7------ 7---- 8----------10|------10------ 9---- 9------ 9 9|
D|---------------- 8--------------|--12--------12------------------|
A| 6------------ 8--------------10|-------------- 9-------------- 8|
E|--------------------------------|--------------------------------|
http://classicalguitartablature.blogspot.com/
E|10 810-- 8----10-- 8---- 8----10|-- 810--11----10-- 8---- 8---- 0|
B|101010----10--10----10----10-- 9|-- 9 9-- 9-- 9 9-- 9-- 9------ 0|
G|------ 9---- 9 9------------ 9 8|-- 8 8---- 8-- 8-- 8-- 8---- 8--|
D|--------------------------------|--------------------------10----|
A|---------------- 8------------ 8|---------------- 8--------------|
E|--------------------------------|--------------------------------|
http://classicalguitartablature.blogspot.com/
E|------ 0-- 1 3------ 3---- 5-- 7|---- 5---- 5-- 7---- 7-- 5-- 7--|
B|---- 0 0-- 0 0---- 0---- 0---- 5|-- 5 5-- 8 5-- 5---- 5-- 5-- 5--|
G| 0-- 0 0-- 0------ 0-- 0------ 7| 7------ 7---- 6-- 6---- 6-- 6--|
D|--------------------------------|--------------------------------|
A|------------------------------ 0|---------------- 0--------------|
E| 0-------------- 0--------------|--------------------------------|
http://classicalguitartablature.blogspot.com/
E| 8--------------10--------------|11--------------10--------------|
B| 6------ 6------ 8------ 8------| 9------ 9------10--------------|
G| 5-- 5---- 5---- 7---- 7-- 7----| 8---- 8-- 8----10------10------|
D|-- 7-------- 7 9---- 9-------- 9|----10------1010----10------10--|
A| 5-------------- 7--------------| 8--------------10--------------|
E|--------------------------------|--------------------------------|
http://classicalguitartablature.blogspot.com/
E| 8------------------------------|------------------------ 5-- 7--|
B| 5-------------- 5--------------|--------------------------------|
G| 7------ 7-------------- 7------| 7 7 7 7-- 7 7 6----------------|
D|---- 5------ 5------ 5------ 5 5|-- 5 5 5-- 5 5 5----------------|
A|------------------------------ 0|------------------------------ 5|
E| 8------------------------------|--------------------------------|
http://classicalguitartablature.blogspot.com/
E| 8--------------10--------------|11--------------10--------------|
B| 6-------------- 8--------------| 9--------------10--------------|
G| 7-------------- 9------------10|--------------10-------------- 7|
D|--------------------------------|--------------------------------|
A|-------------- 7-------------- 8|--------------10----------------|
E|--------------------------------|------------------------------ 8|
http://classicalguitartablature.blogspot.com/
E| 8-------------------------- 7--| 3-------------------------- 3--|
B| 5------------ 5---------- 5----| 1------------ 1---------- 1----|
G|-------- 7------ 7---- 7--------| 0------ 0---- 0----------------|
D|---- 5------ 5------ 5----------|---- 2------ 2------ 2----------|
A|--------------------------------| 0-------------------- 0--------|
E|--------------------------------|------------------------------ 1|
http://classicalguitartablature.blogspot.com/
E| 0------------------------------|--------------------------------|
B| 1---------- 1-------------- 3--| 1------ 0------------------ 0--|
G| 2------ 2-------------- 2------| 2------ 2-------- 2------------|
D|---- 2-------------- 2----------| 3-- 3-------- 3-------- 3------|
A|--------------------------------|--------------------------------|
E|---------------- 1------------ 3|--------------------------------|
http://classicalguitartablature.blogspot.com/
E|--------------------------------|--------------------------------|
B|--------------------------------|---- 1--------------------------|
G|--------------------------------|-- 4----------------------------|
D|-- 3----------------------------|-- 2----------------------------|
A|--------------------------------|-- 3----------------------------|
E|--------------------------------|--------------------------------|
http://classicalguitartablature.blogspot.com/

0 ความคิดเห็น:

แสดงความคิดเห็น