To celebrate the anniversary, I am giving you (finally...) : iPhone LickByNeck !!!!!!

Leaving On A Jet Plane (BASIC)

Classic tune fingerstyle chord melody guitar BASIC arrangement played in the key of C.

http://classicalguitartablature.blogspot.com/
Leaving On A Jet Plane - BASIC ARRANGEMENT played in the key of C
http://classicalguitartablature.blogspot.com/
E|--------------------------------|--------------------------------|
B|---- 1--------------------------|---- 3-------------- 3----------|
G|---- 3--------------------------|---- 2-------------- 2----------|
D|---- 2--------------------------|---- 1-------------- 1----------|
A| 3------------------------------|---------------------------- 2--|
E|------------------------------ 2| 1------------------------------|
http://classicalguitartablature.blogspot.com/
E|--------------------------------|--------------------------------|
B|---- 1-------------- 1----------|---- 3---------- 1------ 3------|
G|---- 3-------------- 3----------|---- 2---------- 2------ 2------|
D|---- 2-------------- 2----------|---- 1---------- 1------ 1------|
A| 3------------------------------|--------------------------------|
E|---------------------------- 2--| 1------------------------------|
http://classicalguitartablature.blogspot.com/
http://classicalguitartablature.blogspot.com/
E| 1---- 0------------------------|--------------------------------|
B| 1---- 1------ 1----------------|---- 1------ 3------ 1 3--------|
G| 0------ 0---------- 0------ 2--|---- 2------ 2------ 2 2--------|
D|---------------------------- 3--|-------------------- 3 3--------|
A| 3------------------------------|--------------------------------|
E|--------------------------------| 1------------------------------|
http://classicalguitartablature.blogspot.com/
E| 1---- 0------------------------|------------------------------ 1|
B| 1---- 1------ 1----------------|---- 1------ 3------ 1 3------ 1|
G| 0------ 0---------- 0------ 2--|---- 2------ 2------ 2 2------ 0|
D|---------------------------- 3--|-------------------- 3 3--------|
A| 3------------------------------|------------------------------ 3|
E|--------------------------------| 1------------------------------|
http://classicalguitartablature.blogspot.com/
E|------ 0-------------------- 1--|---- 0--------------------------|
B|------ 1------ 3---- 1------ 1--|---- 1------ 3-------------- 3--|
G|------ 0------ 0---- 0------ 0--|---- 0------ 5------ 5------ 0--|
D|-------------- 0---- 0----------|------------ 3------ 3------ 0--|
A|-------------- 2----------------| 0------------------------------|
E|--------------------------------|---------------- 4--------------|
http://classicalguitartablature.blogspot.com/
E|--------------------------------|--------------------------------|
B|---------------------------- 3--|------------ 0-------------- 3--|
G|------------ 0-------- 0--------|------ 0------------ 4 5--------|
D|------ 0------------ 0----------|---- 0-------------- 3----------|
A|-------------- 0-------------- 2|-------------- 5----------------|
E| 3------------------------------|--------------------------------|
http://classicalguitartablature.blogspot.com/
E| 1---- 0------------------------|--------------------------------|
B| 1---- 1------ 1----------------|---- 1------ 3------ 1 3--------|
G| 0------ 0---------- 0------ 2--|---- 2------ 2------ 2 2--------|
D|---------------------------- 3--|-------------------- 3 3--------|
A| 3------------------------------|--------------------------------|
E|--------------------------------| 1------------------------------|
http://classicalguitartablature.blogspot.com/
E| 1---- 0------------------------|------------------------------ 1|
B| 1---- 1------ 1----------------|---- 1------ 3------ 1 3------ 1|
G| 0------ 0---------- 0------ 2--|---- 2------ 2------ 2 2------ 0|
D|---------------------------- 3--|-------------------- 3 3--------|
A| 3------------------------------|------------------------------ 3|
E|--------------------------------| 1------------------------------|
http://classicalguitartablature.blogspot.com/
E|------ 0-------------------- 1--|---- 0--------------------------|
B|------ 1------ 3---- 1------ 1--|---- 1------ 3-------------- 3--|
G|------ 0------ 0---- 0------ 0--|---- 0------ 5------ 5------ 0--|
D|-------------- 0---- 0----------|------------ 3------ 3------ 0--|
A|-------------- 2----------------| 0------------------------------|
E|--------------------------------|---------------- 4--------------|
http://classicalguitartablature.blogspot.com/
E|--------------------------------|---------------------------- 3--|
B|---------------------------- 3--|------------ 0------ 3------ 3--|
G|------------ 0---------- 0------|-------- 0---------- 4----------|
D|------ 0------------ 0----------|---- 0-------------- 3----------|
A|---------------- 0--------------| 2-------------- 5--------------|
E| 3------------------------------|--------------------------------|
http://classicalguitartablature.blogspot.com/
E| 3-------------- 0-- 3----------| 1-- 0--------------------------|
B| 1---------- 1------ 1----------| 1-- 1------ 1-------------- 1--|
G| 0------ 0------ 0---------- 0--| 2-- 2------ 2-------- 2--------|
D|------ 2---------------- 2------|-------------------- 3----------|
A| 3------------------------------|--------------------------------|
E|--------------------------------| 1------------------------------|
http://classicalguitartablature.blogspot.com/
E|---- 3---------- 0-- 3----------| 1-- 0--------------------------|
B|---- 1---------- 1-- 1----------| 1-- 1------ 1-------------- 1--|
G|---- 0------ 0-- 0---------- 0--| 2-- 2------ 2-------- 2--------|
D|------ 2---------------- 2------|-------------------- 3----------|
A| 3------------------------------|--------------------------------|
E|--------------------------------| 1------------------------------|
http://classicalguitartablature.blogspot.com/
E|---- 3-------- 0---- 3----------| 1-- 0--------------------------|
B|---- 1-------- 0---- 0----------| 1-- 1--------------------------|
G|------------ 0 0------------ 0--| 2---------- 0-- 5-- 5------ 5--|
D|------ 2---------------- 0------|-------- 2------ 3---- 3--------|
A| 3-------------- 2--------------| 0------------------------------|
E|--------------------------------|---------------- 4--------------|
http://classicalguitartablature.blogspot.com/
E|--------------------------------|---------------------------- 3--|
B| 3-------------------------- 3--|------------ 0-------------- 3--|
G|------------ 0---------- 0------|-------- 0---------- 4------ 4--|
D|------ 0------------ 0----------|---- 0-------------- 3----------|
A|---------------- 0--------------| 2---------------- 5------------|
E| 3------------------------------|--------------------------------|
http://classicalguitartablature.blogspot.com/
E| 3-------------- 0--------------|--------------------------------|
B| 1---------- 1-- 1---------- 1--|10-- 8-------------- 8----------|
G| 0---- 0---------------- 0------|10--10------10--------------10--|
D|---- 2-------------- 2----------|10--10------10--------10--------|
A| 3------------------------------| 8------------------------------|
E|---------------- 0--------------|--------------------------------|
http://classicalguitartablature.blogspot.com/
E|---- 3---------- 0-- 3----------| 1-- 0--------------------------|
B|---- 1---------- 1-- 1----------| 1-- 1------ 1-------------- 1--|
G|---- 0------ 0-- 0---------- 0--| 2-- 2------ 2-------- 2--------|
D|------ 2---------------- 2------|-------------------- 3----------|
A| 3------------------------------|--------------------------------|
E|--------------------------------| 1------------------------------|
http://classicalguitartablature.blogspot.com/
E|---- 3-------- 0---- 3----------| 1-- 0--------------------------|
B|---- 1-------- 0---- 0----------| 1-- 1--------------------------|
G|------------ 0 0------------ 0--| 2---------- 0-- 5-- 5------ 5--|
D|------ 2---------------- 0------|-------- 2------ 3---- 3--------|
A| 3-------------- 2--------------| 0------------------------------|
E|--------------------------------|---------------- 4--------------|
http://classicalguitartablature.blogspot.com/
E|--------------------------------|---------------------------- 3--|
B| 3-------------------------- 3--|------------ 0-------------- 3--|
G|------------ 0---------- 0------|-------- 0---------- 4------ 4--|
D|------ 0------------ 0----------|---- 0-------------- 3----------|
A|---------------- 0--------------| 2---------------- 5------------|
E| 3------------------------------|--------------------------------|
http://classicalguitartablature.blogspot.com/
E| 3-------------- 0--------------|--------------------------------|
B| 1---------- 1-- 1---------- 1--|10-- 8-------------- 8----------|
G| 0---- 0---------------- 0------|10--10------10--------------10--|
D|---- 2-------------- 2----------|10--10------10--------10--------|
A| 3------------------------------| 8------------------------------|
E|---------------- 0--------------|--------------------------------|
http://classicalguitartablature.blogspot.com/
E|---- 3---------- 0-- 3----------| 1-- 0--------------------------|
B|---- 1---------- 1-- 1----------| 1-- 1------ 1-------------- 1--|
G|---- 0------ 0-- 0---------- 0--| 2-- 2------ 2-------- 2--------|
D|------ 2---------------- 2------|-------------------- 3----------|
A| 3------------------------------|--------------------------------|
E|--------------------------------| 1------------------------------|
http://classicalguitartablature.blogspot.com/
E|---- 3-------- 0---- 3----------| 1-- 0--------------------------|
B|---- 1-------- 0---- 0----------| 1-- 1--------------------------|
G|------------ 0 0------------ 0--| 2---------- 0-- 5-- 5------ 5--|
D|------ 2---------------- 0------|-------- 2------ 3---- 3--------|
A| 3-------------- 2--------------| 0------------------------------|
E|--------------------------------|---------------- 4--------------|
http://classicalguitartablature.blogspot.com/
E|--------------------------------|--------------------------------|
B|---------------------------- 0--|-------- 3-- 1------------------|
G| 0---------- 0------ 0----------| 0------------------ 2------ 0--|
D|------ 0-------- 3--------------|--------------------------------|
A|--------------------------------|--------------------------------|
E| 3------------------------------|--------------------------------|
http://classicalguitartablature.blogspot.com/
E|--------------------------------|--------------------------------|
B|--------------------------------|-------- 3-- 1------------------|
G|---------------- 0--------------|-------- 2-- 2------ 2------ 0--|
D|------------ 2------------------|---- 1--------------------------|
A| 3------------------------------|--------------------------------|
E|-------------------- 2------ 1--|--------------------------------|
http://classicalguitartablature.blogspot.com/
E|--------------------------------|--------------------------------|
B|--------------------------------|-------- 3-- 1------------------|
G|---------------- 0--------------|-------- 2-- 2------ 2------ 0--|
D|------------ 2------------------|---- 1---------------------- 2--|
A| 3------------------------------|--------------------------------|
E|-------------------- 2------ 1--|--------------------------------|
http://classicalguitartablature.blogspot.com/
E|--------------------------------|--------------------------------|
B|--------------------------------|--------------------------------|
G|--------------------------------|--------------------------------|
D|--------------------------------|--------------------------------|
A| 1---- 3------------------------|--------------------------------|
E|--------------------------------|--------------------------------|
http://classicalguitartablature.blogspot.com/

0 ความคิดเห็น:

แสดงความคิดเห็น