To celebrate the anniversary, I am giving you (finally...) : iPhone LickByNeck !!!!!!

Light My Fire (BASIC)

The Doors' classic tune fingerstyle chord melody guitar BASIC arrangement played in the key of C#.

http://classicalguitartablature.blogspot.com/
Light My Fire - The Doors - BASIC ARRANGEMENT played in the key of C#
http://classicalguitartablature.blogspot.com/
E|------------ 9------------------|-------- 712-- 9 7 5------------|
B|11-- 9--11------12--11-- 9------| 9---- 7------ 5------ 7 8-- 7--|
G|--11------------10----------11--|---- 9-------- 6----------------|
D|---------------- 9--------------|--------------------------------|
A| 9------------------------------| 7-------------- 0--------------|
E|---------------- 9--------------|--------------------------------|
http://classicalguitartablature.blogspot.com/
E|-------- 5-- 7-- 5 2 0------ 0--| 4-------- 4---------- 4--------|
B| 8-- 7---------------- 3--------|--------------------------------|
G| 7-- 7--------------------------|------ 5---------- 5---------- 5|
D|--------------------------------|---- 5---------- 6-------- 6----|
A| 5------------------------------|--------------------------------|
E|---------------- 3--------------| 4-- 4-- 4-- 4-- 4-- 4-- 4-- 4--|
http://classicalguitartablature.blogspot.com/
http://classicalguitartablature.blogspot.com/
E|-- 4---------- 4---------- 4-- 7|---- 4 7-- 4-- 7-- 6------ 4----|
B|-------------- 4-------------- 4|------------ 4 4----------------|
G|---------- 5---------- 5------ 4|------------ 4 4----------------|
D|------ 6---------- 6------------|---------------------------- 1--|
A|--------------------------------|-------------- 6----------------|
E| 4-- 4-- 4-- 4 4-- 4-- 4---- 4 4|------------ 7---------- 7------|
http://classicalguitartablature.blogspot.com/
E|---------------------------- 4 7|---- 4 7-- 4-- 7-- 6------ 4----|
B|-------- 1-------------------- 4|------------ 4 4----------------|
G|-------- 1-------------------- 4|------------ 4 4----------------|
D|-------- 1----------------------|---------------------------- 1--|
A|---------------- 3---------- 3--|-------------- 6----------------|
E| 1---------- 4---------- 4---- 4|------------ 7---------- 7------|
http://classicalguitartablature.blogspot.com/
E|---------------------------- 4 7|---- 4 7-- 4---- 7-------- 4----|
B|-------- 1-------------------- 4|------------ 4-- 4-- 7----------|
G|-------- 1-------------------- 4|------------ 4-- 4--------------|
D|-------- 1----------------------|---------------------------- 1--|
A|---------------- 3---------- 3--|---------------- 6--------------|
E| 1---------- 4---------- 4---- 4|------------ 7---------- 7------|
http://classicalguitartablature.blogspot.com/
E|---------------------------- 4 7|---- 4 7-- 4-- 7-- 6------ 4----|
B|-------- 1-------------------- 4|------------ 4 4----------------|
G|-------- 1-------------------- 4|------------ 4 4----------------|
D|-------- 1----------------------|---------------------------- 1--|
A|---------------- 3---------- 3--|-------------- 6----------------|
E| 1---------- 4---------- 4---- 4|------------ 7---------- 7------|
http://classicalguitartablature.blogspot.com/
E|---------------------------- 4--| 2-- 2------ 2------------------|
B|-------- 1----------------------| 2-- 2------ 2-- 6-- 6------ 2--|
G|-------- 1----------------------| 3-- 3------ 3-- 5-- 5------ 1--|
D|-------- 1----------------------|---------------- 6-- 6------ 3--|
A|---------------- 3---------- 3--|---------------------------- 4--|
E| 1---------- 4---------- 4------| 2-- 2------ 2-- 4-- 4----------|
http://classicalguitartablature.blogspot.com/
E|---------------------------- 2--|---- 2-- 2 2--------------------|
B|---- 2---------------------- 2--|---- 2-- 2 2-- 6---- 6------ 2--|
G|---- 1-------------- 1------ 3--|---- 3-- 3 3---- 5-- 5------ 1--|
D|---- 3-------------- 3----------|-------------- 6---- 6------ 3--|
A|------------ 4------------------|---------------------------- 4--|
E|--------------------------------| 2-------------- 4--------------|
http://classicalguitartablature.blogspot.com/
E|---------------------------- 2--|---- 2-- 2-- 2-- 1-- 1----------|
B|---- 2------ 3-------------- 2--|---- 2-- 2-- 2-- 2-- 2------ 4--|
G|---- 1------ 1------ 1------ 3--|---- 3-- 3-- 3-- 1-- 1------ 6--|
D|---- 3------ 3------ 3----------|---------------------------- 5--|
A|------------ 1------------------|--------------------------------|
E|--------------------------------| 2-------------- 1--------------|
http://classicalguitartablature.blogspot.com/
E|--------------------------------|-------------------------- 4-- 7|
B|--------------------------------|------------------------------ 4|
G|------------ 6-- 6-- 6-- 6-- 6 6|-- 6---- 6-- 6 6-- 6-- 6------ 4|
D|------------ 5-- 5-- 5-- 5 5-- 5|-- 5---- 5-- 5 5-- 5-- 5--------|
A| 6-------------- 6-- 6-- 6-- 6--| 6-- 6-- 6-- 6-- 6---- 6--------|
E|--------------------------------|------------------------------ 4|
http://classicalguitartablature.blogspot.com/
E|---- 4 7-- 4-- 7-- 6------ 4----|---------------------------- 4 7|
B|------------ 4 4----------------|-------- 1-------------------- 4|
G|------------ 4 4----------------|-------- 1-------------------- 4|
D|---------------------------- 1--|-------- 1----------------------|
A|-------------- 6----------------|---------------- 3---------- 3--|
E|------------ 7---------- 7------| 1---------- 4---------- 4---- 4|
http://classicalguitartablature.blogspot.com/
E|---- 4 7-- 4-- 7-- 6------ 4----|---------------------------- 4 7|
B|------------ 4 4----------------|-------- 1-------------------- 4|
G|------------ 4 4----------------|-------- 1-------------------- 4|
D|---------------------------- 1--|-------- 1----------------------|
A|-------------- 6----------------|---------------- 3---------- 3--|
E|------------ 7---------- 7------| 1---------- 4---------- 4---- 4|
http://classicalguitartablature.blogspot.com/
E|---- 4 7-- 4---- 7-------- 4----|---------------------------- 4 7|
B|------------ 4-- 4-- 7----------|-------- 1-------------------- 4|
G|------------ 4-- 4--------------|-------- 1-------------------- 4|
D|---------------------------- 1--|-------- 1----------------------|
A|---------------- 6--------------|---------------- 3---------- 3--|
E|------------ 7---------- 7------| 1---------- 4---------- 4---- 4|
http://classicalguitartablature.blogspot.com/
E|---- 4 7-- 4-- 7-- 6------ 4----|---------------------------- 4--|
B|------------ 4 4----------------|-------- 1----------------------|
G|------------ 4 4----------------|-------- 1----------------------|
D|---------------------------- 1--|-------- 1----------------------|
A|-------------- 6----------------|---------------- 3---------- 3--|
E|------------ 7---------- 7------| 1---------- 4---------- 4------|
http://classicalguitartablature.blogspot.com/
E| 2-- 2------ 2------------------|---------------------------- 2--|
B| 2-- 2------ 2-- 6-- 6------ 2--|---- 2---------------------- 2--|
G| 3-- 3------ 3-- 5-- 5------ 1--|---- 1-------------- 1------ 3--|
D|---------------- 6-- 6------ 3--|---- 3-------------- 3----------|
A|---------------------------- 4--|------------ 4------------------|
E| 2-- 2------ 2-- 4-- 4----------|--------------------------------|
http://classicalguitartablature.blogspot.com/
E|---- 2-- 2 2--------------------|---------------------------- 2--|
B|---- 2-- 2 2-- 6---- 6------ 2--|---- 2------ 3-------------- 2--|
G|---- 3-- 3 3---- 5-- 5------ 1--|---- 1------ 1------ 1------ 3--|
D|-------------- 6---- 6------ 3--|---- 3------ 3------ 3----------|
A|---------------------------- 4--|------------ 1------------------|
E| 2-------------- 4--------------|--------------------------------|
http://classicalguitartablature.blogspot.com/
E|---- 2-- 2-- 2-- 1-- 1----------|--------------------------------|
B|---- 2-- 2-- 2-- 2-- 2------ 4--|--------------------------------|
G|---- 3-- 3-- 3-- 1-- 1------ 6--|------------ 6-- 6-- 6-- 6-- 6 6|
D|---------------------------- 5--|------------ 5-- 5-- 5-- 5 5-- 5|
A|--------------------------------| 6-------------- 6-- 6-- 6-- 6--|
E| 2-------------- 1--------------|--------------------------------|
http://classicalguitartablature.blogspot.com/
E|-------------------------- 4----|------------ 9------------------|
B|--------------------------------|11-- 9--11------12--11-- 9------|
G|-- 6---- 6-- 6 6-- 6-- 6--------|--11------------10----------11--|
D|-- 5---- 5-- 5 5-- 5-- 5--------|---------------- 9--------------|
A| 6-- 6-- 6-- 6-- 6---- 6--------| 9------------------------------|
E|--------------------------------|---------------- 9--------------|
http://classicalguitartablature.blogspot.com/
E|-------- 712-- 9 7 5------------|-------- 5-- 7-- 5 2 0------ 0--|
B| 9---- 7------ 5------ 7 8-- 7--| 8-- 7---------------- 3--------|
G|---- 9-------- 6----------------| 7-- 7--------------------------|
D|--------------------------------|--------------------------------|
A| 7-------------- 0--------------| 5------------------------------|
E|--------------------------------|---------------- 3--------------|
http://classicalguitartablature.blogspot.com/
E| 4-------- 4---------- 4--------|-- 4---------- 4---------- 4----|
B|--------------------------------|-------------- 4----------------|
G|------ 5---------- 5---------- 5|---------- 5---------- 5--------|
D|---- 5---------- 6-------- 6----|------ 6---------- 6---------- 4|
A|--------------------------------|--------------------------------|
E| 4-- 4-- 4-- 4-- 4-- 4-- 4-- 4--| 4-- 4-- 4-- 4 4-- 4-- 4---- 4 4|
http://classicalguitartablature.blogspot.com/
E|--------------------------------|--------------------------------|
B| 7------------------------------|--------------------------------|
G| 5------------------------------|--------------------------------|
D|--------------------------------|--------------------------------|
A|--------------------------------|--------------------------------|
E|--------------------------------|--------------------------------|
http://classicalguitartablature.blogspot.com/

0 ความคิดเห็น:

แสดงความคิดเห็น