To celebrate the anniversary, I am giving you (finally...) : iPhone LickByNeck !!!!!!

More Than Words (BASIC)

Extreme's all time classic unplugged tune fingerstyle chord melody guitar BASIC arrangement played in the key of G.

More Than Words - BASIC ARRANGEMENT played in the key of G.
http://classicalguitartablature.blogspot.com/
E|--------------------------------|---------------- 3-- 3----------|
B|---- 3-------------- 3----------|---- 3-------- 3---- 3---- 1----|
G|---- 0-------------- 0----------|---- 0---------- 0-- 0---- 0----|
D|---- 0-------------- 0----------|---- 2-------------------- 2----|
A|------------ 2-------------- 3--|------------ 3-------------- 0--|
E| 3------------------------------|--------------------------------|
http://classicalguitartablature.blogspot.com/
E|-- 0------------ 3-- 0----------|---- 0------ 2------ 3----------|
B|-- 1------------ 1-- 1------ 1--|---- 1------ 3------ 3----------|
G|-- 0------------ 0-- 0------ 0--|---- 0------ 2------ 2----------|
D|---------------------------- 2--|------------ 0------------------|
A|------------ 0-------------- 3--|--------------------------------|
E|--------------------------------|---------------------------- 3--|
http://classicalguitartablature.blogspot.com/
http://classicalguitartablature.blogspot.com/
E|---- 3-------------- 3----------|---- 3-------- 3-- 3------------|
B|---- 3------ 3------ 3------ 3--|---- 3-------- 3-- 3------ 1----|
G|---- 0------ 0------ 0------ 0--|---- 0---------- 0 0------ 0----|
D|------------ 0-------------- 2--|-------------------------- 2----|
A|------------ 2-------------- 3--|---------- 3---------------- 0--|
E|--------------------------------|--------------------------------|
http://classicalguitartablature.blogspot.com/
E|-- 0------------ 3-- 0----------|---- 0------ 2------ 3----------|
B|-- 1------------ 1-- 1------ 1--|---- 1------ 3------ 3----------|
G|-- 0------------ 0-- 0------ 0--|---- 0------ 2------ 2----------|
D|---------------------------- 2--|------------ 0------------------|
A|------------ 0-------------- 3--|--------------------------------|
E|--------------------------------|---------------------------- 3--|
http://classicalguitartablature.blogspot.com/
E|---- 3--------------------------| 0------------------ 0----------|
B|---- 3---- 0------ 3---- 3 0-- 1|---------- 3-------- 1------ 3--|
G|---- 0---- 0------------ 0 0----| 0-------- 0-------- 0----------|
D|------------ 0---------- 0 0----|-- 2------ 2--------------------|
A|------------ 2------------------| 3---------- 3------------------|
E|--------------------------------|--------------------------------|
http://classicalguitartablature.blogspot.com/
E|------ 0------------------------|------ 0------------------------|
B| 3---- 1-- 3-------- 3---- 3-- 3|------ 3---- 3-------------- 3--|
G| 0-------- 0-------- 0---- 0-- 0|-------------------- 5------ 0--|
D| 2-- 2---- 2-------- 2---- 2-- 2|-- 2-------- 4-------------- 0--|
A| 0------------ 0----------------| 3-------------- 5--------------|
E|--------------------------------|--------------------------------|
http://classicalguitartablature.blogspot.com/
E|--------------------------------| 0---------------- 0------------|
B|---- 3------ 0------ 3-- 3-- 0--| 1---------- 3------ 1------ 3--|
G|---- 0------ 0------ 0-- 0-- 0--| 0---------- 0------ 0----------|
D|---- 0------ 0------ 0-- 0-- 0--|---- 2------ 2------------------|
A|------------ 2------------------| 3---------- 3------------------|
E| 3------------------------------|--------------------------------|
http://classicalguitartablature.blogspot.com/
E|------ 0------------------------|------ 0------------------------|
B| 3---- 3---- 3---- 3------ 3----| 3---- 3---- 3------------ 0----|
G| 0---------- 0------ 0---- 0----| 0---------------- 5------ 0----|
D|---- 2------ 2------ 2---- 2----| 2-- 2------ 4---------- 4 2----|
A| 0------------ 0----------------| 3------------ 5----------------|
E|--------------------------------|------------------------------ 0|
http://classicalguitartablature.blogspot.com/
E|--------------------------------|--------------------------------|
B|---- 0------ 0------ 0------ 1--|---- 1---- 1---- 0---------- 3--|
G|---- 0------ 0------ 0------ 2--|---- 2---- 2------ 2-------- 5--|
D|---- 2------ 2------ 2------ 2--|---- 2---- 2---------------- 4--|
A|------------ 2------------------| 0---------- 0------------------|
E|--------------------------------|--------------------------------|
http://classicalguitartablature.blogspot.com/
E|---- 0--------------------------|-------------------------- 3----|
B|---- 3------ 3------------ 0----|---- 0---- 0------ 3------ 0----|
G|---- 5------ 5------ 5---- 0----|---- 0---- 2------ 2------ 0----|
D|------------ 4------ 4---- 0----|---- 0---- 0------ 0------------|
A| 5---------- 5------------------|--------------------------------|
E|------------------------------ 3|------------ 2---------------- 0|
http://classicalguitartablature.blogspot.com/
E|-------------- 0-- 0------ 0----|---- 0--------------------------|
B|-- 0---------- 0-- 0------ 1----|---- 1------ 1------------ 1-- 7|
G|-- 0---------- 0-- 0------ 2----|---- 2------ 2------------ 2-- 5|
D|-- 2----------------------------|------------ 2---- 2------ 2-- 7|
A|-------------- 2------------ 0--|------------ 0-------------- 0 5|
E|--------------------------------|--------------------------------|
http://classicalguitartablature.blogspot.com/
E|---------------------------- 1--|---- 1---- 1------ 3-- 1-- 0----|
B|---- 7---- 5-------- 7-- 8-- 0--|---- 0---- 0------ 0-- 0-- 1----|
G|---- 5---- 5-------- 5-- 5-- 0--|---- 0------ 0---- 0-- 0-- 0----|
D|---- 7------ 7------ 7-- 7------|--------------------------------|
A|------------ 5------------------|------------ 2---------------- 3|
E|--------------------------------| 3------------------------------|
http://classicalguitartablature.blogspot.com/
E|-------------------------- 3----|--------------------------------|
B|-------------- 3---- 1---- 4----|-- 4------ 3-------------- 1----|
G|---- 0-------- 0-- 0------ 5----|-- 5------ 5------ 5------ 0----|
D|---- 2-------- 2-- 2------------|-- 5------ 5------ 5------ 0----|
A|------------ 3-- 3------------ 3|------------ 3------------------|
E|--------------------------------|---------------------------- 3--|
http://classicalguitartablature.blogspot.com/
E|--------------------------------|---- 0-------------------- 0-- 0|
B| 3 1------------ 0-- 0------ 3--|---- 3-------------- 0-------- 1|
G|---------------- 2-- 2------ 0--|---- 0-------------- 0-------- 0|
D|---------------- 0-- 0------ 2--|-------------------- 2----------|
A|--------------------------------|------------ 2------------------|
E|------------ 3-- 2-- 2------ 0--|--------------------------------|
http://classicalguitartablature.blogspot.com/
E|--------------------------------| 2---------------------------- 3|
B|-------------- 1----------------| 3-------------- 3------------ 3|
G|------ 0---------------- 0------|-------- 2------------ 2------ 0|
D|-- 2------ 2------ 2-------- 2--|-- 4-------- 4---- 4------ 4----|
A| 0------------------------------| 5------------------------------|
E|--------------------------------|------------------------------ 3|
http://classicalguitartablature.blogspot.com/
E|---------------------------- 5--|---- 5---- 3-------------- 2----|
B|---------- 0---------------- 3--|---- 3------ 3------------ 3----|
G|---------- 0-------- 0------ 0--|---- 0---- 0------ 0------ 2----|
D|-- 0------ 0-------- 0----------|-------------------- 0----------|
A|------------ 2------------------|-------------- 2----------------|
E|--------------------------------| 3---------------------------- 2|
http://classicalguitartablature.blogspot.com/
E|--------------------------------|------------------ 7------ 3----|
B|-- 3---------- 3-- 3------10----|-- 8------10------10-------- 1--|
G|-- 2---------- 2-- 2------ 7----|-- 7------ 7------ 7-------- 0--|
D|-- 0---------- 0-- 0------ 9----|-- 9------ 9--------------------|
A|------------------------------ 7|--------------------------------|
E|---------- 2--------------------|---------- 7--------------------|
http://classicalguitartablature.blogspot.com/
E|-------------- 0-- 0------ 0----|-- 0------ 0-------------- 0----|
B|-- 1---------- 1-- 1------ 1----|---- 1---- 1------ 3-- 1-- 1----|
G|-- 0---------- 0-- 0------ 0----|---- 0---- 0------ 0-- 0-- 0----|
D|-- 2----------------------------|------------------ 2-- 2--------|
A| 3-------- 3------------------ 3|---------- 3------------------ 0|
E|--------------------------------|--------------------------------|
http://classicalguitartablature.blogspot.com/
E|-------------- 0---- 0------ 2--|---- 2---- 2--------------------|
B|-- 1---------- 1---- 1------ 3--|---- 3------ 3---- 5-- 3---- 3--|
G|-- 0---------- 0---- 0------ 2--|---- 2------ 2---- 2-- 2---- 0--|
D|-- 2----------------------------|------------------ 4-- 4---- 0--|
A|---------- 0--------------------| 5------------------------------|
E|--------------------------------|------------ 2------------------|
http://classicalguitartablature.blogspot.com/
E|---------------------------- 5--|---- 5---- 7-------- 7----------|
B|-- 3------ 0-------- 0------ 3--|---- 3---- 8-------- 8------ 3--|
G|-- 0------ 0-------- 0------ 0--|---- 0------ 7------ 7------ 2--|
D|---- 0---- 0-------- 0----------|---------------------------- 0--|
A|---------- 2--------------------|--------------------------------|
E| 3------------------------------| 3------------ 7----------------|
http://classicalguitartablature.blogspot.com/
E|--------------------------------|-------------------- 7---- 3----|
B|---- 3---------- 3-- 3------10--|-- 8------10--------10------ 1--|
G|---- 2---------- 2-- 2------ 7--|-- 7------ 7-------- 7------ 0--|
D|---- 0---------- 0-- 0------ 9--|-- 9------ 9--------------------|
A|------------------------------ 7|------------------------------ 3|
E| 2-------------- 2--------------|------------ 7------------------|
http://classicalguitartablature.blogspot.com/
E|-------------- 0-- 0------ 0----|---- 0---- 0-------------- 0----|
B|-- 1---------- 1-- 1------ 1----|---- 1---- 1------ 3-- 1-- 1----|
G|-- 0---------- 0-- 0-------- 0--|---- 0------ 0---- 0-- 0-- 0----|
D|-- 2----------------------------|------------------ 2-- 2--------|
A|---------- 3------------------ 3|------------ 3---------------- 0|
E|--------------------------------|--------------------------------|
http://classicalguitartablature.blogspot.com/
E|---------------- 0-- 0----------|-------------------------- 3----|
B|---- 1---------- 1-- 1------ 7--|---- 7------ 7------ 7 8-- 3----|
G|---- 0---------- 0-- 0------ 5--|---- 5------ 5------ 5------ 0--|
D|---- 2---------------------- 7--|---- 7-- 7-- 7------ 7----------|
A|------------ 0------------------| 5------------------------------|
E|--------------------------------|------------------------------ 3|
http://classicalguitartablature.blogspot.com/
E|--------------------------------|--------------------------------|
B|-- 3-------------- 3-------- 0--|---- 1-- 0---------- 0------ 1--|
G|-- 0---------------- 0------ 0--|---- 0-- 0-- 2------ 0------ 0--|
D|-- 0---------------- 0------ 2--|---- 2-- 2-- 2------ 2------ 2--|
A|---------- 2--------------------| 3-------------- 3--------------|
E|--------------------------------|--------------------------------|
http://classicalguitartablature.blogspot.com/
E|--------------------------------|--------------------------------|
B|---- 1---------- 1-- 1------ 3--|---- 5------ 3-------------- 0--|
G|---- 0---------- 0-- 0------ 0--|---- 0------ 0------ 5------ 0--|
D|---- 2---------- 2-- 2------ 4--|------------ 4------ 4------ 0--|
A| 0---------- 0------------------| 5------------ 5----------------|
E|--------------------------------|--------------------------------|
http://classicalguitartablature.blogspot.com/
E|--------------------------------|--------------------------------|
B|---- 0-------------- 0------ 0--|---- 1-- 0---------- 0------ 1--|
G|---- 0-------------- 0------ 0--|---- 0-- 0-- 2------ 0----------|
D|---- 0-------------- 0------ 2--|---- 2-- 2-- 2------ 2----------|
A|------------ 2------------------| 3-------------- 3------------ 0|
E| 3------------------------------|--------------------------------|
http://classicalguitartablature.blogspot.com/
E|---------------- 0--------------| 2------------------ 2------ 3--|
B|------------ 1---- 1------------| 3-------------- 3--------------|
G|------ 0---------------- 0---- 2|--------------------------------|
D|-- 2------------------------ 2--|--------------------------------|
A|------------------------------ 5|--------------------------------|
E|--------------------------------|--------------------------------|
http://classicalguitartablature.blogspot.com/
E| 3------------ 3----------------| 5-------------- 5------------ 7|
B| 3---------- 3---- 3------------| 3---------- 3------ 3--------10|
G| 0------ 0-------------- 0------| 2---- 2---------------- 2---- 7|
D|---- 0-------------------- 0----|---- 4-------------------- 4----|
A|--------------------------------|--------------------------------|
E| 3------------------------------| 2------------------------------|
http://classicalguitartablature.blogspot.com/
E|------ 8---- 7------------------|------------------------ 7------|
B|------10----10------10---- 9----|----------10--------------------|
G|------ 7---- 7------ 7---- 7----|------ 7-------------------- 7--|
D|-- 7---------------- 7------ 9--|-- 9---------------- 9----------|
A| 8-------------- 8--------------|--------------------------------|
E|--------------------------------| 0-------------- 0--------------|
http://classicalguitartablature.blogspot.com/
E| 5------------------------------|--------------------------------|
B| 5---------- 5---------- 8------| 7------------------------------|
G| 5------ 5---------- 5---- 5----| 5------------------------------|
D|---- 5---------- 5--------------| 7------------------------------|
A| 0---------------------------- 5|--------------------------------|
E|--------------------------------|--------------------------------|
http://classicalguitartablature.blogspot.com/
E|---------------- 0-- 2------ 3--| 3-------------- 3--------------|
B|--------------------------------| 3---------- 3------ 3----------|
G|--------------------------------| 0------ 0-------------- 0------|
D|--------------------------------|---- 0-------------------- 0----|
A|--------------------------------|--------------------------------|
E|--------------------------------| 3------------------------------|
http://classicalguitartablature.blogspot.com/
E|------ 3-------------- 3--------|------ 3---------------- 5 7-- 5|
B| 3---- 3---- 3 3------ 3-- 3-- 3|------ 3-- 3---------- 5--------|
G| 0---------- 0-- 0-------- 0-- 0|---------- 0-------- 5----------|
D|---- 2------------ 0------------|-- 0-------------- 5------------|
A| 3-------------- 2--------------| 1------------ 0----------------|
E|--------------------------------|--------------------------------|
http://classicalguitartablature.blogspot.com/
E|------------------ 5------------|------------------------ 3------|
B|---------------- 5--------------|---------------------- 3--------|
G|---------------- 5--------------|-------------------- 0----------|
D|-------------- 5----------------|-------------------- 0----------|
A|-------------- 5----------------|------------------ 2------------|
E|--------------------------------|------------------ 3------------|
http://classicalguitartablature.blogspot.com/

0 ความคิดเห็น:

แสดงความคิดเห็น