To celebrate the anniversary, I am giving you (finally...) : iPhone LickByNeck !!!!!!

Obladi Oblada - The Beatles

The Beatles' tune fingerstyle chord melody guitar BASIC arrangement played in the key of Bb.

Obladi Oblada - The Beatles - BASIC ARRANGEMENT played in the key of Bb
http://classicalguitartablature.blogspot.com/
E|--------------------------------|--------------------------------|
B| 6-- 6 6-- 6 6 6----------------|---- 6------ 6------ 6------ 6--|
G| 8------------------ 9-- 8-- 7--|---- 7------ 7------ 7------ 7--|
D| 7------------------------------|---- 8------ 8------ 8------ 8--|
A|--------------------------------|------------ 8-------------- 8--|
E|--------------------------------| 6------10------ 6------10------|
http://classicalguitartablature.blogspot.com/
E|--------------------------------|--------------------------------|
B|---- 6------ 6------ 6------ 6--|--------------------------------|
G|---- 7------ 7------ 7------ 7--| 7---- 7---- 7-- 7-- 7-- 5------|
D|---- 8------ 8------ 8------ 8--|---- 8------ 8-- 8-- 8------ 8--|
A|------------ 8-------------- 8--|-------- 5-- 8---------- 5-- 8--|
E| 6------10------ 6------10------| 6-------------- 6--------------|
http://classicalguitartablature.blogspot.com/

http://classicalguitartablature.blogspot.com/
E|--------------------------------|--------------------------------|
B|---- 1---- 1-------- 1----------| 4-- 4-- 4-- 4-- 4-- 4-- 3-- 1--|
G| 2---------- 2------ 2----------| 2-- 2-- 2-- 2-- 2-- 2-- 2-- 2--|
D| 3---------- 3------ 3----------|--------------------------------|
A|-------- 0-- 3---------- 0-- 3--|-------- 0-- 3---------- 0-- 3--|
E| 1-------------- 1--------------| 1-------------- 1--------------|
http://classicalguitartablature.blogspot.com/
E|--------------------------------|--------------------------------|
B|--------------------------------| 6---- 6-- 6---- 6------------ 4|
G|--------------------------------|---- 7---- 7------ 7-- 8-- 7----|
D| 8------------------------------|--------------------------------|
A|------------ 8-------------- 8--|------ 5---- 8-------- 5---- 8--|
E| 6------10------ 6------10------| 6-------------- 6--------------|
http://classicalguitartablature.blogspot.com/
E|------------ 3---- 3------------|--------------------------------|
B|-- 6-------- 4---- 4-- 6---- 4--|---------------- 1-- 4-- 3-- 1--|
G| 3-- 3------ 3---- 3-- 3---- 3--| 7 7-- 8---- 7-- 2-- 2-- 2-- 2--|
D|---------------------- 5---- 5--| 8 8------------ 3-- 3-- 3------|
A| 6-------------- 6--------------|------ 5---- 8---------- 0-- 3--|
E|------ 3---- 6-------- 3---- 6--| 6-- 5---------- 1--------------|
http://classicalguitartablature.blogspot.com/
E|--------------------------------|---------------------------- 1--|
B|---------------------------- 6--|------------ 6-------------- 1--|
G|------------------------ 7-- 7--|-------- 7-- 7---------- 7-- 2--|
D| 8------------------ 8-- 8-- 8--|---- 8-- 8-- 8------ 8-- 8------|
A|------------ 8---------- 5-- 8--|-------- 5-- 8---------- 5------|
E| 6------10------ 6--------------| 6-------------- 6--------------|
http://classicalguitartablature.blogspot.com/
E|---- 1------ 6------------------|--------------------------------|
B|---- 1------ 3---- 3---------- 6|-------------- 3-- 1------------|
G|---- 2------ 3---- 3---------- 7|-- 8-- 7-- 8-- 2---- 2----------|
D|-------------------- 5-------- 8|-- 8------------ 3-- 3------ 8--|
A|------ 0------------------ 5----|------ 5---- 8-------- 0--------|
E| 1-------------- 3---- 6--------| 6-------------- 1------------ 6|
http://classicalguitartablature.blogspot.com/
E|--------------------------------|---------------------------- 1--|
B|---------------------------- 6--|------------ 6-------------- 1--|
G|------------------------ 7-- 7--|-------- 7-- 7---------- 7-- 2--|
D|-------------------- 8-- 8-- 8--|---- 8-- 8-- 8------ 8-- 8------|
A|------------ 8---------- 5-- 8--|-------- 5-- 8---------- 5------|
E|--------10------ 6--------------| 6-------------- 6--------------|
http://classicalguitartablature.blogspot.com/
E|---- 1------ 6------------------|--------------------------------|
B|---- 1------ 3---- 3---------- 6|-------------- 3-- 1------------|
G|---- 2------ 3---- 3---------- 7|-- 8-- 7-- 8-- 2---- 2----------|
D|-------------------- 5-------- 8|-- 8------------ 3-- 3------ 8--|
A|------ 0------------------ 5----|------ 5---- 8-------- 0--------|
E| 1-------------- 3---- 6--------| 6-------------- 1------------ 6|
http://classicalguitartablature.blogspot.com/
E|--------------------------------|--------------------------------|
B|--------------------------------|------------ 6-- 8------ 6-- 8--|
G|---------------- 3--------------|-------- 8------ 8------ 8-- 8--|
D|---------------- 3--------------|---- 8-------------- 8-- 8-- 8--|
A|------------ 8------ 3-- 4-- 5--| 6------ 6------ 6------ 6------|
E|--------10------ 6--------------|------------ 6-------------- 6--|
http://classicalguitartablature.blogspot.com/
E| 6------------------------------|--------------------------------|
B| 8---------- 8---------------- 3|-- 3------ 3-- 1-- 1------ 1----|
G|-------- 8-- 8---------------- 3|-- 3------ 3-- 3-- 3------ 3----|
D|---- 8------ 8------ 8---- 8----| 3-- 3---- 3-- 3-- 3------ 3----|
A| 6------ 6------ 6------ 6------| 1---- 1-------- 1---- 1--------|
E|------------ 6-------------- 6--|---------- 1---------------- 1--|
http://classicalguitartablature.blogspot.com/
E|--------------------------------|--------------------------------|
B|--------------------------------|------------ 6-- 8------ 6-- 8--|
G| 3-- 3---- 3---- 1-- 1------ 1--|-------- 8------ 8------ 8-- 8--|
D| 3-- 3---- 3---- 3-- 3------ 3--|---- 8-------------- 8-- 8-- 8--|
A| 1------ 1------ 1------ 1------| 6------ 6------ 6------ 6------|
E|------------ 1-------------- 1--|------------ 6-------------- 6--|
http://classicalguitartablature.blogspot.com/
E| 6------------------------------|--------------------------------|
B| 8---------- 8---------------- 3|-- 3-- 3-- 4-------- 3------ 1--|
G|-------- 8-- 8---------------- 2|-- 2-- 2---- 2------ 2------ 2--|
D|---- 8------ 8------ 8---- 8----|-- 3-- 3---- 3------ 3------ 3--|
A| 6------ 6------ 6------ 6------|--------------------------------|
E|------------ 6-------------- 6--|---- 1------ 1------ 1------ 1--|
http://classicalguitartablature.blogspot.com/
E|--------------------------------|--------------------------------|
B|--------------------------------|--------------------------------|
G|--------------------------------| 7---- 7---- 7-- 7-- 7-- 5------|
D|--------------------------------|---- 8------ 8-- 8-- 8------ 8--|
A|---------------------------- 0--|-------- 5-- 8---------- 5-- 8--|
E|---- 1------ 1-- 1-- 1-- 3------| 6-------------- 6--------------|
http://classicalguitartablature.blogspot.com/
E|--------------------------------|--------------------------------|
B|---- 1---- 1-------- 1----------| 4-- 4-- 4-- 4-- 4-- 4-- 3-- 1--|
G| 2---------- 2------ 2----------| 2-- 2-- 2-- 2-- 2-- 2-- 2-- 2--|
D| 3---------- 3------ 3----------|--------------------------------|
A|-------- 0-- 3---------- 0-- 3--|-------- 0-- 3---------- 0-- 3--|
E| 1-------------- 1--------------| 1-------------- 1--------------|
http://classicalguitartablature.blogspot.com/
E|--------------------------------|--------------------------------|
B|--------------------------------| 6---- 6-- 6---- 6------------ 4|
G|--------------------------------|---- 7---- 7------ 7-- 8-- 7----|
D| 8------------------------------|--------------------------------|
A|------------ 8-------------- 8--|------ 5---- 8-------- 5---- 8--|
E| 6------10------ 6------10------| 6-------------- 6--------------|
http://classicalguitartablature.blogspot.com/
E|------------ 3---- 3------------|--------------------------------|
B|-- 6-------- 4---- 4-- 6---- 4--|---------------- 1-- 4-- 3-- 1--|
G| 3-- 3------ 3---- 3-- 3---- 3--| 7 7-- 8---- 7-- 2-- 2-- 2-- 2--|
D|---------------------- 5---- 5--| 8 8------------ 3-- 3-- 3------|
A| 6-------------- 6--------------|------ 5---- 8---------- 0-- 3--|
E|------ 3---- 6-------- 3---- 6--| 6-- 5---------- 1--------------|
http://classicalguitartablature.blogspot.com/
E|--------------------------------|---------------------------- 1--|
B|---------------------------- 6--|------------ 6-------------- 1--|
G|------------------------ 7-- 7--|-------- 7-- 7---------- 7-- 2--|
D| 8------------------ 8-- 8-- 8--|---- 8-- 8-- 8------ 8-- 8------|
A|------------ 8---------- 5-- 8--|-------- 5-- 8---------- 5------|
E| 6------10------ 6--------------| 6-------------- 6--------------|
http://classicalguitartablature.blogspot.com/
E|---- 1------ 6------------------|--------------------------------|
B|---- 1------ 3---- 3---------- 6|-------------- 3-- 1------------|
G|---- 2------ 3---- 3---------- 7|-- 8-- 7-- 8-- 2---- 2----------|
D|-------------------- 5-------- 8|-- 8------------ 3-- 3------ 8--|
A|------ 0------------------ 5----|------ 5---- 8-------- 0--------|
E| 1-------------- 3---- 6--------| 6-------------- 1------------ 6|
http://classicalguitartablature.blogspot.com/
E|--------------------------------|---------------------------- 1--|
B|---------------------------- 6--|------------ 6-------------- 1--|
G|------------------------ 7-- 7--|-------- 7-- 7---------- 7-- 2--|
D|-------------------- 8-- 8-- 8--|---- 8-- 8-- 8------ 8-- 8------|
A|------------ 8---------- 5-- 8--|-------- 5-- 8---------- 5------|
E|--------10------ 6--------------| 6-------------- 6--------------|
http://classicalguitartablature.blogspot.com/
E|---- 1------ 6------------------|--------------------------------|
B|---- 1------ 3---- 3---------- 6|-------------- 3-- 1------------|
G|---- 2------ 3---- 3---------- 7|-- 8-- 7-- 8-- 2---- 2----------|
D|-------------------- 5-------- 8|-- 8------------ 3-- 3------ 8--|
A|------ 0------------------ 5----|------ 5---- 8-------- 0--------|
E| 1-------------- 3---- 6--------| 6-------------- 1------------ 6|
http://classicalguitartablature.blogspot.com/
E|--------------------------------|--------------------------------|
B|------------------------------ 6|-------------- 3-- 1------------|
G|-------------------- 7-------- 7|-- 8-- 7-- 8-- 2---- 2----------|
D|-------------------- 8-------- 8|-- 8------------ 3-- 3------ 8--|
A|------------ 8-------------- 8--|------ 5---- 8-------- 0--------|
E|--------10---- 6------10--------| 6-------------- 1------------ 6|
http://classicalguitartablature.blogspot.com/
E|--------------------------------|--------------------------------|
B|------------------------------ 6|-------------- 3-- 1------------|
G|-------------------- 7-------- 7|-- 8-- 7-- 8-- 2---- 2------ 3--|
D|-------------------- 8-------- 8|-- 8------------ 3-- 3------ 3--|
A|------------ 8-------------- 8--|------ 5---- 8-------- 0--------|
E|--------10---- 6------10--------| 6-------------- 1--------------|
http://classicalguitartablature.blogspot.com/
E|--------------------------------|--------------------------------|
B|--------------------------------|--------------------------------|
G|-------- 3------ 3--------------|--------------------------------|
D|-------- 3------ 3--------------|--------------------------------|
A| 1-------------- 1--------------|--------------------------------|
E|-------- 1----------------------|--------------------------------|
http://classicalguitartablature.blogspot.com/

0 ความคิดเห็น:

แสดงความคิดเห็น